"yes"; ?> Out In The Street by Who - guitar chords, guitar tabs and lyrics - chordie

Out In The Street

Who



 foxtrot001@msn.com
Revision by Michael Richardson  and litgo@aol.com

Tune down whole step: DGCFAD

F (G) 3t55433
Eb (F) 1t33211
Bb (C) x32010

F7 xx5767
Gm/F xx5555
F xx5433

Bb7 8 10 8 9 8 8
C7 10 12 12 11 10 10

|F | |Eb5 |Bb |
Out!
|----------------|3--------|----------------|--------------|
|--------3---3---|3--------|1-1-1-1-1-1-1-1-|1-------------|
|----4/4-4-4-4/4-|4--------|2-2-2-2-2-2-2-2-|0-------------|
|5-5-5/5-5-5-5/5-|5--------|3-3-3-3-3-3-3-3-|2-------------|
|5-5-5/5---5-5/5-|5--------|3-------3---3---|3-------------|
|3-3-3/----------|---------|1---------------|--------------|

 amp tremolo on; strum witb side of pick

 2/4
|F | |Eb5 |Bb |F | | |
(Out in the)
|--------------|3-----|----------------|---------|3--------|------|----------|
|------3---3---|3-----|1-1-1-1---------|1--------|3--------|------|----------|
|0-0-0-0-0-0-0-|0-----|2-2-2-2---------|0--------|0--------|------|----------|
|0-0-0-0-0-0-0-|0-----|3-3-3-3-3-3-3-3-|2--------|0--------|------|----------|
|--------------|------|--3---3---3---3-|3--------|---------|------|----------|
|3-3-3-3-3-3-3-|3-----|----------------|---------|3--------|------|----------|

[tremolo off;
pick normally]

 4/4; basic pattern. witb variations
| F7 Gm/F |F || F7 Gm/F |F ||
|---5h7---5---|3---------||---5h7--5---|3---------||
|---5h6---5---|3---------||---5h6--5---|3---------||
|---5h7---5---|4---------||---5h7--5---|4---------||
|---5-----5---|5---3-5---||/3-5---(5)--|5---3-5p3h||
|-------------|--5-------||------------|--5-------||
|-------------|----------||------------|----------||


 verse
| F7 Gm/F |F |
Out in the street

| F7 Gm/F |F |
I'm talkin' about slowly
(talk, talk, talk)

| F7 Gm/F|F |
I'm not goin' there
(no, no, no)

| F7 Gm/F|F |
Woman, you don't know me
(no, no, no)

 cborus
| F7 Gm/F|F |
Yeah, you don't know me, no
(no, no, no)

| F7 Gm/F|F | F7 Gm/F|F |
Know me, no Know me, no
(no, no, no) (no, no, no)

|Bb7 C7 |
Yeah,
|------------------|
|------13/13-13/13-|

|9/-11-11/11-11/11-|
|10/12-12/12-12/12-|
|10/12-12/12-12/12-|
|8/-10-10/10-10/10-|

|C7 | F7 Gm/F |F |
But I'm a-gonna know you (no, no, no...)
|------------------------|------5h7---5---|3-------|
|------------------------|------5h6---5---|3-------|
|------------------------|------5h7---5---|4-------|
|12----------------------|------5-----5---|5---3-5-|
|12----------------------|----------------|--5-----|
|10----------------------|----------------|--------|


 repeat verse
Hey, listen woman
You just can't throw me
I won't stand it
If you don't know me

 repeat cborus
If you don't know me, no
Know me, no
Know me, no

|Bb7 C7 |
Yeah,
|------------------|

|11/13-13/13-13/13-|
|9/-11-11/11-11/11-|
|10/12-12/12-12/12-|
|10/12-12/12-12/12-|
|8/-10-10/10-10/10-|

|C7 | F7 Gm/F |F | F7 Gm/F |F |
But I'm a-gonna know you (no, no, no...)
|------------------------|------5h7---5---|3--------|---5h7---5---|3-------|
|12----------------------|------5h6---5---|3--------|---5h6---5---|3-------|
|11----------------------|------5h7---5---|4--------|0--5h7---5---|4-------|
|12----------------------|------5-----5---|5---3-5-3|0------------|5-------|
|12----------------------|----------------|--5------|-------------|--------|
|10----------------------|----------------|---------|-------------|--------|


 bridge
||:Bb C :||
||-8/-10-10-10-----------||
||-8/-10-10-10-----------||
||.9/-11-11-11----------.||
||.10/12-12-12----------.||
||-10/12-12-12-----------||
||-8/-10-10-10-----------||


A-listen to me
I'm telling you
You look at me, woman
Yeah, tell the truth

||:Bb C Bb7 :||
||-8/-10-10-10-----------------||
||-8/-10-10-10-----------------||
||.9/-11-11-11---------9------.||
||.10/12-12-12---------10-----.||
||-10/12-12-12---------10------||
||-8/-10-10-10---------8-------||


I know your mine
I can see that you're in need
I'll show you woman
Yeah, that you belong to me

 repeat cborus
You're gonna know me, no
Know me, no
Know me, no
But I'm a-gonna know you

 break
||: F7 Gm/F F :||
||---5h7---5----3---------||
||---5h6---5----3---------||
||.--5h7---5-5--4--------.||
||.--5-------5--5--------.||
||------------------------||
||------------------------||


 gtr 2: toggle pickup selector; pick scrape, etc.

 repeat verse
Give me no reasons
Said you'd go free
That's how it's gonna be now
If you gotta know me

 repeat cborus
If you're gonna know me now
Know me now
Know me now
Yeah, you're gonna know me

You're gonna know me
Said, you're gonna know me
Said, you're gonna know me

|F | |Eb |Bb5 |F | |
Gonna know me woman
|---------------|3--------|----------------|--------------|3--------|------|
|--3-------3---3|3--------|1-1-1-1-1-1-1-1-|1-------------|3--------|------|
|0-0-0-0-0-0-0-0|0--------|2-2-2-2-2-2-2-2-|0-------------|0--------|------|
|0-0-0-0-0-0-0-0|0--------|3-3-3-3-3-3-3-3-|--------------|0--------|------|
|---------------|---------|3---3---3---3---|3-------------|---------|------|
|3-3-3-3-3-3-3-3|3--------|1---------------|--------------|3--------|------|

 amp tremolo on; strum witb side of pick

 2/44/4
|Eb | | |F7 F7 ||
'Cause I'm gonna know I'm gonna know you
|----------------|---------|-------------------|13-----------||
|1---------------|---------|-------------------|12-------8---||
|2---------------|---------|-------------------|12-------10--||
|3---------------|---------|-------------------|12-------9---||
|3---------------|---------|-------------------|10-------10--||
|1---------------|---------|-------------------|==-----------||

 rasguedo
 tremolo off

=============
litgo@aol.com




variations - click chord images
Transpose chords:
Tuning:
Cool service:
View: Size:
A  A  A
Rating:
Layout:
  • Currently 0/5 Stars.
  • 1
  • 2
  • 3
  • 4
  • 5
 
Accuracy:
  • Currently 2.6/5 Stars.
  • 1
  • 2
  • 3
  • 4
  • 5
 
click stars to rate
Chordie recommends:
Learn how to play guitar at JamPlay.com
Songbook:
Login to add this song to your songbook
Support the artist
Preview/buy this song
MSN Music
Why this non-profit ad?

 
login to add comments/video/corrections