"yes"; ?> The Ox by Who - guitar chords, guitar tabs and lyrics - chordie

The Ox

Who



|--|--|--|---------|----|--------|-----|-----------|-----|

|--|--|--|---------|----|--------|-----|-----------|-----|

|--|--|--|----5--5/|7---|---5--5/|7----|------5--5/|7----|

|--|--|--|---------|----|--------|-----|-----------|-----|

|-------------|--------|------------|----------|------------|------

|-------------|--------|------------|----------|------------|------

|-------5---5/|7\5-5-5/|7-7-7/5-5-5/|7-7\5-5-5/|2-----------|--5/7-

|-------------|--------|------------|----------|--3-3/5-5-5/|7-----


 CDG
-------|---------------|-----|----------|----|-------------|---------|
-------|---------------|-----|----------|----|-------------|---------|
--7--7/|9------------7/|9----|----------|14--|---------7-7/|9--------|
--7--7/|9------------7/|9----|----------|14--|-7-5---5-7-7/|9--------|
--5--5/|7---5/7-5--5-5/|7----|-5/7-5--5-|12--|-----7---5-5/|7--5-7-5-|
-------|---------7-----|-----|------7---|----|-------------|---------|

 AGD
|-------------|------------|----------|-----------|
|-------------|------------|0---------|-----------|
|-------7-9---|------5-7---|9---------|-----------|
|-9-9-9-7-9---|7-7-7-5-7---|9---------|--------9-7|
|-9-9-9-------|7-7-7-------|7---------|------5/7/5|
|-7-----------|------------|0---------|------0----|

 D
|-------------|-------------|-------------|-------------|
|-------------|-------------|-------------|-------------|
|-------------|-------------|-------------|-------------|
|-------------|-------------|-------------|-------------|
|--7/5----5/7-|--7/5----5/7-|--7/5----5/7-|--7/5----5/7-|
|0-----0------|0-----0------|0-----0------|0-----0------|

 GD
|-------------|-------------|-------------|-------------|
|-------------|-------------|-------------|-------------|
|-------------|-------------|-------------|-------------|
|--7/5---5/7--|--7/5---5/7--|-------------|-------------|
|------0------|0-----0------|--7/5----5/7-|--7/5----5/7-|
|0------------|0-----0------|0-----0------|0-----0------|

 AGD
|-------------|-------------|--------------|----------------|
|-------------|-------------|--------------|----------------|
|-------------|-------------|--------------|----------------|
|---9-----7---|---7-----5---|--------------|----------------|
|-7---7/9-----|-7---5/7-----|--7/5----5/7--|----------------|
|0------------|-------------|0-----0-------|0---------------|

 D
|-------------|-------------|--------------|----------------|
|-------------|-------------|--------------|----------------|
|4------------|-------------|4-------------|----------------|
|2------------|-------------|2-------------|----------------|
|2------------|-------------|2-------------|----------------|
|0------------|-------------|0-------------|----------------|

 GD
|-------------|-------------|--------------|----------------|
|-7/8~--------|-------------|--------------|----------------|
|-------------|--2^\--------|--------------|--------------3-|
|-------------|-----------0/|2-------------|------------2^--|
|-------------|-------------|--------------|----------------|
|-------------|-------------|--------------|----------------|

 AGD
|-----------|---------------|---------|----------------|
|----------3|-------3/5-5-3/|5-5-3/5--|5-5-5-----------|
|2^\----2^--|2^\------------|---------|------------9-7/|
|-----------|---------------|---------|------------9-7/|
|-----------|---------------|---------|------------7-5/|
|-----------|---------------|---------|----------------|

 D
|--------------|-------------|-------------|--------------|
|--------------|-------------|-------------|--------------|
|9---9-7---7-7/|9--9-7---7-7/|9--9-7---7-7/|9--9-7---7-12/|
|9---9-7-9-7-7/|9--9-7-9-7-7/|9--9-7-9-7-7/|9--9-7-9-7-12/|
|7---7---9-----|---7---9-----|---7---9-----|---7---9------|
|--------------|-------------|-------------|--------------|

 GD
|----------------|---------------|-------------|-----------|
|----------------|---------------|-------------|-----------|
|14--12----12-12/|14--12----12-7/|9--9-7---7-7/|9--9-7---7-|
|14--12-14-12-12/|14--12-14-12-7/|9--9-7-9-7-7/|9--9-7-9-7-|
|-------14-------|-------14------|---7---9-----|---7---9---|
|----------------|---------------|-------------|-----------|

 AGD
|-------------|------------|----------|----------|
|-------------|------------|0---------|----------|
|-------7-9---|------5-7---|9---------|----------|
|-9-9-9-7-9---|7-7-7-5-7---|9---------|----------|
|-9-9-9-------|7-7-7-------|7---------|----------|
|-7-----------|------------|0---------|----------|

 D
|-------------|------------|----------|----------|
|-------------|------------|----------|----------|
|-------------|------------|----------|----------|
|-------------|------------|----------|----------|
|-------------|------------|----------|----------|
|-------------|------------|----------|----------|

(piano break)
|-------------|------------|----------|--------3/|
|-------------|------------|----------|----------|
|-------------|------------|----------|----------|
|-------------|------------|----------|----------|
|(7)--(7)-----|(7)--(7)----|(7)--(7)--|(7)--(7)--|
|-------------|------------|----------|----------|

 GD
|5--------|-----------|----------|----------|
|-----3---|/5---------|----------|----------|
|---------|-----2^-\--|----------|----------|
|---------|-----------|----------|------0-/2|
|---------|-----------|--7/5---5/|7---2-----|
|---------|-----------|0-----0---|--0-------|

 D
|-------------|-------------|--------------|--------------|
|-------------|-------------|--------------|--------------|
|-------------|-------------|-----------2^\|-----------2^\|
|-----0-0\2--2|-----0-0\2--2|-----0-0\2----|-----0-0\2----|
|---2---------|---2---------|---2----------|---2----------|
|0------------|0------------|0-------------|0-------------|

 D
|--------------|-----------|-----------|----------|------------|
|--------------|-----------|-----------|----------|------------|
|-----------2^\|-----------|-----------|----------|------------|
|-----0-0\2----|------5-7--|------5-7--|----------|------------|
|---2----------|--5-7------|--5-7------|----------|------------|
|0-------------|0----------|0----------|0-3/0-3-5~|0-3/0-3-0---|

 GD
|----------|-------|------------|-----------|
|----------|-------|------------|-----------|
|----5-----|-------|------------|-----------|
|------5-5-|7------|------------|-----------|
|----------|------0|0---7/5---5/|7-0--7/5---|
|5---------|-------|0-------5---|--0------0-|

 AGD
|------------|------------|----------|------0-|
|------------|------------|----------|------0-|
|------7-----|------5-7---|----------|------4-|
|9-9-9-7-9---|7-7-7-5-7---|----------|------2-|
|9-9-9---9---|7-7-7-------|----------|------2-|
|7-----------|------------|0---------|------0*|

*bend neck forward
 D
(amp tremelo on; amp feedback)
|(0)-----------|------------|----------|----------|
|(0)-----------|------------|----------|----------|
|(4)-----------|------------|----------|----------|
|(2)-----------|------------|----------|----------|
|(2)-----------|------------|----------|----------|
|(0)-----------|------------|----------|----------|

 GD
|-------------|------------|----------|----------|
|-------------|------------|----------|----------|
|2------------|2---------2-|4---------|---------4|
|2------------|2---------2-|2---------|---------4|
|0------------|0-----------|2---------|---------2|
|-------------|------------|0---------|----------|

 AGD
|-------------|------------|---------|-----------|
|-------------|------------|---------|-----------|
|4------------|2-----------|4---4----|4----4-----|
|4------------|2-----------|2---2----|2----2-----|
|2------------|0-----------|2---2----|2----2-----|
|-------------|------------|0---0----|0----0-----|

 D
|-------------|------------|----------|----------|
|-------------|------------|----------|----------|
|-------------|-----------4|----------|----------|
|2------------|-----------2|2---------|----------|
|2------------|------------|2---------|----------|
|0------------|------------|0---------|----------|

 GD
|-------------|------------|----------|----------|
|-------------|------------|----------|----------|
|2------------|2-----------|----------|----------|
|2------------|2-----------|----------|----------|
|0------------|0----------0|----------|----------|
|-------------|------------|0---xxx---|---xxx----|

 AGD
|-------------|------------|----------|-------------|
|-------------|------------|----------|-------------|
|-------------|------------|----------|-------(4)---|
|-------------|------------|----------|-------(2)---|
|-------------|------------|----------|-------(2)---|
|-------------|------------|----------|-------------|

 D
|-----------|------------|----------|----------|
|-----------|------------|----------|----------|
|-----------|------------|----------|----------|
|-----------|------------|(2)-------|----------|
|-----------|------------|----------|----------|
|-----------|------------|----------|xxxxxxxxxx|

 GD
|-------------|------------|----------|-------------|
|-------------|------------|----------|-------------|
|-------------|------------|----------|-------2^-2^-|
|-------------|------------|----------|-------------|
|-------------|------------|----------|-------------|
|xxxxx--------|-xxxx-------|0---------|0------------|

(scrape strings against amp cabinet)
 AGD
|------------|------------|------------|---------------|
|-----------3|-----------3|-----------3|---------------|
|2^-2^-2^-2^-|2^-2^-2^-2^-|2^-2^-2^-2^-|2^-2^-2^-------|
|------------|------------|------------|---------2/0---|
|------------|------------|------------|---------------|
|------------|------------|------------|-------------0\|

(bend neck forward)
 D
|----------|---------|-----------|-------|-----|
|----------|---------|-----------|-------|-----|
|----------|---------|-----------|-------|-----|
|----------|---------|-----------|-------|-----|
|----------|---------|-----------|-------|-----|
|0---------|---------|-----------|-------|-----|

| | | | | |
|----------|---------|-----------|-------|-----|
|----------|---------|-----------|-------|-----|
|----------|-----5-5/|7----------|---5-5/|7----|
|0---------|---------|-----------|-------|-----|
|-------|--------|--------|--------|--------|--------|
|-------|--------|--------|--------|--------|--------|
|---5-5/|7-7\5-5/|7-7\5-5/|7-7\5-5/|7-7\5-5/|7-7\5-5/|
|-------|--------|--------|--------|--------|--------|

=============
litgo@aol.com



A C D G
variations - click chord images
Transpose chords:
Tuning:
Cool service:
View: Size:
A  A  A
Rating:
Layout:
  • Currently 1.8/5 Stars.
  • 1
  • 2
  • 3
  • 4
  • 5
 
Accuracy:
  • Currently 1.5/5 Stars.
  • 1
  • 2
  • 3
  • 4
  • 5
 
click stars to rate
Chordie recommends:
Get acoustic guitar lessons and electric guitar lessons at JamPlay.com
Songbook:
Login to add this song to your songbook
Support the artist
Preview/buy this song
MSN Music
Why this non-profit ad?

 
login to add comments/video/corrections