""; ?> The Real Me by Who - guitar chords, guitar tabs and lyrics - chordie

The Real Me

Who



 intro
|Cm Cm | Bb C Bb C|Cm Cm | Bb F |Cm | Bb F |Cm | Bb F |
|8-------|----------|----8--|---6--5-|8---8--|---6--5-|----8--|---6--5-|
|8-------|----------|----8--|---6--6-|8---8--|---6--6-|----8--|---6--6-|
|5---5---|----5---5-|5---5--|---3--5-|5---5--|---3--5-|5---5--|---3--5-|
|5---5---|----5---5-|5---5--|---3--3-|5---5--|---3--3-|5---5--|---3--3-|
|3---3---|----3---3-|3------|--------|3------|--------|3------|--------|
|--------|--6---6---|-------|--------|-------|--------|-------|--------|


 verse
|Cm | Bb Cm Bb Cm Bb |
I went back to the doctor to
|---------------------|------------------------|
|---------------------|------------------------|
|5--------------------|--------(3)-5-(3)-5-(3)-|
|5--------------------|--------(3)-5-(3)-5-(3)-|
|3--------------------|------------3-----3-----|
|---------------------|---------6-----6-----6--|


|Cm Cm | Bb Cm Bb Cm Bb |
Get another shrink I sit and
|-----------|----------------------|
|-----8-----|----------------------|
|5----5-----|------(3)-5-(3)-5-(3)-|
|5----5-----|------(3)-5-(3)-5-(3)-|
|3----3-----|----------3-----3-----|
|-----------|-------6-----6-----6--|


|Cm Cm | Bb Cm Bb Cm Bm |
Tell him 'bout my weekend but he
|-----------------|----------------------|
|----------8------|----------------------|
|5---------5------|------(3)-5-(3)-5-(3)-|
|5---------5------|------(3)-5-(3)-5-(3)-|
|3---------3------|----------3-----3-----|
|-----------------|-------6-----6-----6--|


|Cm Cm | Bb F |
Never betrays what he thinks
|8-------8------------|-------6--5--------|
|8-------8------------|-------6--6--------|
|5-------5------------|-------3--5-----5/5|
|5-------5------------|-------3--3-----5/5|
|3-------3------------|----------------3/3|
|---------------------|-------------------|


 cborus
|Cm |Cm7 |Fadd9/C|F/C |
Can you see the real me? Doctor, doctor
|8-------------8/8|8-------|3------|8----------|
|8-------------8/8|8-------|6------|6----------|
|5-------------8/8|8-------|5------|5-------5/5|
|5-------------8/8|8-------|7------|3-------5/5|
|3-------------3/3|3-------|3------|3-------3/3|
|-----------------|--------|-------|-----------|


|Cm |Cm7 |Fadd9/C| |
Can you see the real me? Doctor, whoa,
|8-------------8/8|8--------|3------|8------|
|8-------------8/8|8--------|6------|6------|
|5-------------8/8|8--------|5------|5------|
|5-------------8/8|8--------|7------|3------|
|3-------------3/3|3--------|3------|3------|
|-----------------|---------|-------|-------|


 repeat intro
|Cm Cm | Bb F |Cm | Bb F |
Doctor...
|----8----|---6--5-|-------|----6--5-|
|----8----|---6--6-|-------|----6--6-|
|5---5----|---3--5-|-------|----3--5-|
|5---5----|---3--3-|-------|----3--3-|
|3---3----|-------3|6^/3---|---------|
|---------|--------|-------|---------|


 repeat verse
I went back to my mother, I said, I'm crazy, ma, help me
She said, I know how it feels, son, 'cause it runs in the family

 repeat cborus
Can you see the real me? Mother, Mother
Can you see the real me? Mother, whoa, mama

|Cm |Cm7 |Fadd9/C |F/C |Cm
Can you see, can you see, can you see, can you see the real me?
|8------------|8------------|3------------|8----8---8----8------|
|8------------|8------------|6------------|6----6---6----6------|
|5---x--5-5-5-|8---x--------|5---x--------|5----5---5----5------|
|5-5-x--5-5-5-|8---x-8--8-8-|7---x-7-7-7--|3----3---3----3------|
|3-3----3-3-3-|3-3---3--3-3-|3-3---3-3-3--|3----3---3----3------|
|-------------|-------------|-------------|---------------------|


|Cm7 |Fadd9/C | |
Can you see, can you see the real me me me me?

|Cm |Cm7 |Fadd9/C |F/C

The cracks between the paving stones look like rivers of flowing veins
Strange people who know me peeping from behind every window pane
The girl I used to love lives in this yellow house
Yesterday she passed me by, she doesn't want to know me now

 repeat cborus
|Cm |Cm7 |Fadd9/C |F/C |
Can you see the real me? Can you, can you?

Can you see the real me? Can ya, oh, yeah.

 CmBbCmBbCmBbCmBbBbF
||--------------------|-----------6--5----||
||--------------------|-----------6--6----||
||.-5--(3)-5--(3)--5--|(3)-5--(3)-3--5---.||
||.-5--(3)-5--(3)--5--|(3)-5--(3)-3--3---.||
||--3------3-------3--|----3--------------||
||------6------6------|-6------6----------||

I ended up with the preacher, full of lies and hate
I seemed to scare him a little, so he showed me to the golden gate
 repeat cborus
|Cm |Cm7 |Fadd9/C |F/C |
Can you see the real me? Preacher, Preacher?
Can you see the real me? Preacher?
||:Cm |Cm7 |Fadd9/C |F/C :||
Can you see, can you see, can you see, oh
Can you see the real me? Doctor?
|Cm |Cm7 |Fadd9/C|F/C
Can you see the real me? Mo......ther
Can you see the real me..............
=============
litgo@aol.com



Bb Cm F
variations - click chord images
Transpose chords:
Tuning:
Cool service:
View: Size:
A  A  A
Rating:
Layout:
  • Currently 2.2/5 Stars.
  • 1
  • 2
  • 3
  • 4
  • 5
 
Accuracy:
  • Currently 1.8/5 Stars.
  • 1
  • 2
  • 3
  • 4
  • 5
 
click stars to rate
Chordie recommends:
Get acoustic guitar lessons and electric guitar lessons at JamPlay.com
Songbook:
Login to add this song to your songbook
Support the artist
Preview/buy this song
MSN Music
Why this non-profit ad?

 
login to add comments/video/corrections