Under My Thumb

Who



 F#m244222
 E     xx2454
D x54232
A 5x2255
B x24442
(intro; main bass pattern)
||:F#m |E |D |D :||
----||-----5-------|----4-------|----2-------|----2--------||
----||.7-9---------|6-7---------|4-5---------|4-5---------.||
---9||.------9-9--7|------7-7--5|------5-5--5|------5-5--9.||
----||-------------|------------|------------|-------------||

|F#m |E |D |
Under my thumb is the girl who once had me down
Under my thumb is the girl who once pushed me around
|A | |D |B
It's down to me The difference in the clothes she wears
|F#m |E |A | | |
It's down to me, the change has come, she's under my thumb
 DA3
 (under my   thumb)     :||    (under my
|--------||-------------||-------------|
|--------||.----2------.||----2--------|
|5-----5-||.4-5--------.||4-5---------9|
|-------5||------5-5--5-||------5-5----|

Under my thumb is a squirming dog who's just had her day
Under my thumb is a girl who has just changed her ways
It's down to me, the way she does just what she's told
Down to me, the change has come, she's under my thumb
(interlude; verse pattern)
It's down to me, the way she talks when she's spoken to
Down to me, the change has come, she's under my thumb
Under my thumb is a siamese cat of a bird
Under my thumb, she's the sweetest pet in the world
It's down to me, the way she talks when she's spoken to
Down to me, the change has come, she's under my thumb
Yeah, she's under my thumb, babe, she's under my thumb
=============
litgo@aol.com






A D F#m
variations - click chord images
Transpose chords:
Tuning:
Cool service:
View: Size:
A  A  A
Rating:
Layout:
  • Currently 2.2/5 Stars.
  • 1
  • 2
  • 3
  • 4
  • 5
 
Accuracy:
  • Currently 2.2/5 Stars.
  • 1
  • 2
  • 3
  • 4
  • 5
 
click stars to rate
Chordie recommends:
Learn to play songs at Jamplay.com with video guitar lessons
Songbook:
Login to add this song to your songbook
Support the artist
Preview/buy this song
MSN Music
Why this non-profit ad?

 
login to add comments/video/corrections