Won’t Get Fooled Again (synth intro pattern)

Who



Here is the organ intro for Won't Get Fooled Again, arranged for guitar.
capo on 7
 Asus2
--0--0--0--0-----0--2--0----
--3--3--3--3--3-------------
--2--2--2--2--2--2--2--2----
--0--0--0--0--0--0--0--0----
----------------------------
----------------------------

 A5
--5--5--5--5--5--5--3--2----
----------------------------
--2--2--2--2--2--2--2--2----
--0--0--0--0--0--0--0--0----
----------------------------
----------------------------

 A11
--3--3--3--3--3--3--2--0----
--1--1--1--1--1--1--1--1----
----------------------------
--0--0--0--0--0--0--0--0----
----------------------------
----------------------------

Aaug Dm/A
--2--2--2--2-^3--3--3--3----
--3--3--3--3--3--3--3--3----
--3--3--3--3--3--3--3--3----
--0--0--0--0--0--0--0--0----
----------------------------
----------------------------

Aaug
--2--0--2--3--2--0--2--3----
--3--3--3--3--3--3--3--3----
--3--3--3--3--3--3--3--3----
--0--0--0--0--0--0--0--0----
----------------------------
----------------------------

 A7
--5--3--------5--3----------
-----7--3-----------7--3----
--5--5--5--5--5--5--5--5----
----------------------------
--5--5--5--5--5--5--5--5----
----------------------------

 Fmaj7
--5--3--------5--3----------
--3--3--7--3--3--3--7--3----
----------------------------
--3--3--3--3--3--3--3--3----
--5--5--5--5--5--5--5--5----
----------------------------

 A7
--5--3--------5--3----------
-----7--3-----------7--3----
--5--5--5--5--5--5--5--5----
----------------------------
--5--5--5--5--5--5--5--5----
----------------------------

 Fmaj7
--5--3--------5--3----------
--3--3--7--3--3--3--7--3----
----------------------------
--3--3--3--3--3--3--3--3----
--5--5--5--5--5--5--5--5----
----------------------------

 A7
--5--3--------5--3----------
-----7--3-----------7--3----
--5--5--5--5--5--5--5--5----
----------------------------
--5--5--5--5--5--5--5--5----
----------------------------

 Fmaj7
--5--3--------5--3----------
--3--3--7--3--3--3--7--3----
----------------------------
--3--3--3--3--3--3--3--3----
--5--5--5--5--5--5--5--5----
----------------------------

 A
-----2--3--2-----2--3--2----
--3--3--3--3--3--3--3--3----
--2--2--2--2--2--2--2--2----
--0--0--0--0--0--0--0--0----
----------------------------
----------------------------

 D5
-----2--3--2-----2--3--2----
--3--3--3--3--3--3--3--3----
--0--0--0--0--0--0--0--0----
--0--0--0--0--0--0--0--0----
----------------------------
----------------------------

 F
-----2--3--2-----2--3--2----
--3--3--3--3--3--3--3--3----
--3--3--3--3--3--3--3--3----
--0--0--0--0--0--0--0--0----
----------------------------
----------------------------

 A7
-----2--3--2-----2--3--2----
--3--3--3--3--3--3--3--3----
--5--5--5--5--5--5--5--5----
----------------------------
--5--5--5--5--5--5--5--5----
----------------------------

 A6
-----2--3--2-----2--3--2----
--3--3--3--3--3--3--3--3----
--4--4--4--4--4--4--4--4----
----------------------------
--5--5--5--5--5--5--5--5----
----------------------------
-----2--3--2-----2--3--2----
--3--3--3--3--3--3--3--3----
--4--4--4--4--4--4--4--4----
----------------------------
--5--5--5--5--5--5--5--5----
----------------------------

Guitar starts
 A
--2--2--2--2--2--2--2--2----
--3--3--3--3--3--3--3--3----
--2--2--2--2--2--2--2--2----
--0--0--0--0--0--0--0--0----
----------------------------
----------------------------

 D
--2--0--0-------------------
--3--3--3--0--0--0--0--0----
--2--2--2--0--0--0--0--0----
--0--0--0--0--0--0--0--0----
----------------------------
----------------------------

 A
--2--2--2--2--2--2--2--2----
--3--3--3--3--3--3--3--3----
--2--2--2--2--2--2--2--2----
--0--0--0--0--0--0--0--0----
----------------------------
----------------------------

 G/AD/A
--2--0--0-------------------
--3--1--1--0--0--0--0--0----
--2--0--0--0--0--0--0--0----
--0--0--0--0--0--0--0--0----
----------------------------
----------------------------

We'll be fighting in the streets...












A A11 A5 A6 A7 Asus2 D D5 F Fmaj7
variations - click chord images
Transpose chords:
Tuning:
Cool service:
View: Size:
A  A  A
Rating:
Layout:
  • Currently 5/5 Stars.
  • 1
  • 2
  • 3
  • 4
  • 5
 
Accuracy:
  • Currently 4/5 Stars.
  • 1
  • 2
  • 3
  • 4
  • 5
 
click stars to rate
Chordie recommends:
Learn to play this song & others via video guitar lessons at JamPlay.com
Songbook:
Login to add this song to your songbook
Support the artist
Preview/buy this song
MSN Music
Why this non-profit ad?

 
login to add comments/video/corrections