Make me smile

Steve Harley

##song. You may only use this file for private study, scholarship, or research. #

#

--------------------------------------------------------
#Make Me Smile (Come Up And See Me)##play the single note run marked 'guitar 1'). If you have two guitarists you can#it out...##
----------------|----------------|----------------|----------------
----------------|--0-1-0---------|----------------|----------------
--------------0-|2-----------0---|0-0---0---------|0---------------
--------0-2-3---|----------------|----3-------3---|----------------
--0-2-3---------|----------------|----------------|----------------
3---------------|----------------|----------------|----------------

##
----------------|----0-----------|----------------|----------------
--------------0-|1-3---3-----0---|0---1-0---------|0---------------
----------0-2---|----------------|--2---------2---|----------------
----0-2-3-------|----------------|----------------|----------------
2-3-------------|----------------|----------------|----------------
----------------|----------------|----------------|----------------

##You've done it [F]all, you've [C]broken every [G]code
 CG
And pulled the Rebel to the floor
 FCG
You've spoilt the game, no matter what you say
 CG
For only metal, what a bore.
 FC
 Blue eyes, blue eyes,
 FCG
 How can you tell so many lies?
 DmFC
 Come up and see me, make me smile.
 DmFC
 I'll do what you want, running wild.
(pause ad lib)
There's nothing left, all gone and run away,
Maybe you'll tarry for a while?
It's just a test, a game for us to play,
Win or lose, it's hard to smile
Resist, resist,
It's from yourself you have to hide
Come up and see me, to make me smile.
I'll do what you want, running wild.
(pause ad lib)
Guitar solo
 FEmFAmEmEmGGDmFCGDmFCG
                                                                     (pause ad lib)
There ain't no more, you've taken everything
From my belief in Mother Earth.
Can you ignore my faith in everything?
Cos I know what faith is and what it's worth.
Away, away
And don't say maybe you'll try
To come up and see me to make me smile.
I'll do what you want, just running wild.
 FC
ooh-ooh la-la-la

 FC
ooh-ooh la-la-la

 G
 Oooooooooaaaaaah
 DmFC
 Come up and see me, make me smile.
 DmFC
 I'll do what you want, running wild.
(repeat from 'ooh-ooh... &c' to fade)


Am C Dm Em F G
variations - click chord images
Transpose chords:
Tuning:
Cool service:
View: Size:
A  A  A
Rating:
Layout:
  • Currently 1/5 Stars.
  • 1
  • 2
  • 3
  • 4
  • 5
 
Accuracy:
  • Currently 1/5 Stars.
  • 1
  • 2
  • 3
  • 4
  • 5
 
click stars to rate
Chordie recommends:
Learn to play songs at Jamplay.com with video guitar lessons
Songbook:
Login to add this song to your songbook
Support the artist
Preview/buy this song
MSN Music
Why this non-profit ad?

 
login to add comments/video/corrections