""; ?> insertsongandartist - guitar chords, guitar tabs and lyrics - chordie

Pure And Easy

Who





 Intro

|| C G/C | F9/C G/C ||

 CG/CFadd9/CG/C
There once was a note, pure and easy

 G/C
Playing so free like a breath, rippling by

 or Dm/F
Fmaj7                  Dm6 
The note is eternal, I hear it, it sees me,
 Fmaj7Dm6CG/CFadd9/CG/CCG/CFadd9/CG/C
 Forever we blend as, forever we die                                     

 cborus
 CDmFG
listened and I heard music in a word,
------------------------------------------
----------------------------------3-------
--------------------------------4---------
--------------3-5/7----3----3-5-----------
--3-------3-5-----------------------------
------------------------------------------


 CDmFG
and words when you played your guitar    

 DmEmGAm
The noise that I was hearing was a million people cheering
----------------------------------------------------------------
----------------------------------------------------------------
------------------------------------------------5--7/9--7-------
------------------5-7/9------------5--------5-7-----------------
----5--------5-7------------------------------------------------
----------------------------------------------------------------


 GC/GG7C/G
 And a child flew past me riding in a star          
-----------------7-------8------8-----7-----7-----8-----7-------
------------8------8-------8------8-----8-----8-----8-----8-----
--------------7------7-------9------9-----7-----7-----9-----7---
----------------------------------------------------------------


 Dsus4D
As people assemble, civilization

 GG7C/GGG7C/GG
Is trying to find a new way to die            
 AmEmsus4E
But killing is really merely scene changer

 AmDm/FAmDm/FFmaj7/AAm
 All men are bored      with other men's lives                  

 repeat cborus

Gas on the hillside, oil in the teacup
Watch all the chords of life lose their joy
Distortion becomes somehow pure in its wildness
The note that began all can also destroy.

 AmC/AAm7Dm/FG/A
We all know success when we all find our own dream  
And our love is enough to knock down any wall
And the future's been seen as men try to realize
 AmAm7/ADm/FG/A
 The simple secret of the note in us all

 AmCFG
 solo
 cborus

 verse from demo
[Today is the day when sound curdles mountains
Flowing and blowing each man it its wake
Destroying itself in the end with vibration
There's nothing on earth its challenge can take
Excepting one note]

There once was a note... listen
 AAA/GGD/F#
||------------------------3--2--------------||
||------------------------3--3--------------||
||---------2~-------------0--2--------------||
||---------2~-------------0--0--------------||
||----0----0~-------------------------------||
||---------------3^--------------0--2---3^--||


END

+--------------------------------------------------------------------------+

| This file is the author's own work and represents their interpretation |
| of the song. You may only use this file for private study, scholarship, |
| or research. |
+--------------------------------------------------------------------------+


Ultimate-Guitar.Com © 2005