C
  x 3 2 5 x x C#maj7
x 4 3 5 x x Ebadd6
x 6 5 5 x x F
x 8 7 5 x x
 C5
 x 3 5 5 x x Fm/C#
9 8 6 x x x Cmadd11/Eb
x 6 3 5 x x Gm/Eb
11 10 8 x x x
 Em/C
 8 7 5 x x x
Gtr I (E A D G B E) - 'Johnny Greenwood (Keyboard)'
Intro
Q=124
 2/44/46/4
  Gtr I  
                                                                                                                                                                                                                                                                                                                                                                                                                                                                                                                                                                  

|---------|---------------|------------------------|

|---------|---------------|------------------------|

|-5---0---|-5--5-(5)-5--5-|-(5)-5--5-(5)-5-(5)-5---|

|---6-----|-2--2-(2)-2--3-|-(3)-3--5-(5)-5-(5)---8-|

|-------3-|-3--3-(3)-3--4-|-(4)-4--6-(6)-6-(6)-----|

|---------|---------------|------------------------|

 4/42/4
                                                                                                                                                                                                                                                                                                                                                                                                                                                                                                                                                                  

|---------------|--------------------|----------|

|---------------|--------------------|----------|

|-5--5-(5)-5--5-|-(5)-5--5-(5)-5-(5)-|-5---0----|

|-2--2-(2)-2--3-|-(3)-3--5-(5)-5-(5)-|---6------|

|-3--3-(3)-3--4-|-(4)-4--6-(6)-6-(6)-|-------3--|

|---------------|--------------------|----------|

 4/42/4
                                                                                                                                                                                                                                                                                                                                                                                                                                                                                                                                                                  

|-----------------|--------------------|---------|

|-----------------|--------------------|---------|

|-5--5--(5)--5--5-|-(5)-5--5-(5)-5-(5)-|-5---0---|

|-2--2--(2)--2--3-|-(3)-3--5-(5)-5-(5)-|---6-----|

|-3--3--(3)--3--4-|-(4)-4--6-(6)-6-(6)-|-------3-|

|-----------------|--------------------|---------|

 4/42/4
                                                                                                                                                                                                                                                                                                                                                                                                                                                                                                                                                                 

|-----------------|--------------------|---------|

|-----------------|--------------------|---------|

|-5--5--(5)--5--5-|-(5)-5--5-(5)-5-(5)-|-5---0---|

|-2--2--(2)--2--3-|-(3)-3--5-(5)-5-(5)-|---6-----|

|-3--3--(3)--3--4-|-(4)-4--6-(6)-6-(6)-|-------3-|

|-----------------|--------------------|---------|

 4/46/4
                                                                                                                                                                                                                                                                                                                                                                                                                                                                                                                                                                 

|-----------------|-------------------------|

|-----------------|-------------------------|

|-5--5--(5)--5--5-|-(5)-5--5-(5)-5-(5)--5---|

|-2--2--(2)--2--3-|-(3)-3--5-(5)-5-(5)----6-|

|-3--3--(3)--3--4-|-(4)-4--6-(6)-6-(6)------|

|-----------------|-------------------------|

 4/46/4
                                                                                                                                                                                                                                                                                                                                                                                                                                                                                                                                                                 

|-----------------|-------------------------|

|-----------------|-------------------------|

|-5--5--(5)--5--5-|-(5)-5--5-(5)-5-(5)--5---|

|-2--2--(2)--2--3-|-(3)-3--5-(5)-5-(5)----6-|

|-3--3--(3)--3--4-|-(4)-4--6-(6)-6-(6)------|

|-----------------|-------------------------|

 4/46/4
                                                                                                                                                                                                                                                                                                                                                                                                                                                                                                                                                                 

|-----------------|-------------------------|

|-----------------|-------------------------|

|-5--5--(5)--5--5-|-(5)-5--5-(5)-5-(5)--5---|

|-2--2--(2)--2--3-|-(3)-3--5-(5)-5-(5)----8-|

|-3--3--(3)--3--4-|-(4)-4--6-(6)-6-(6)------|

|-----------------|-------------------------|

Chorus
 4/46/4
                                                                                                                                                                                                                                                                                                                                                                                                                                                                                                                                                                 

|--------------|---------------------------|

|--------------|---------------------------|

|-5--5-(5)-5-5-|-(5)-5--5-(5)-5-(5)--5-----|

|-7--5-(5)-5-3-|-(3)-3--5-(5)-5-(5)----8---|

|-8--3-(3)-3-4-|-(4)-4--6-(6)-6-(6)--------|

|--------------|---------------------------|

 4/46/4
                                                                                                                                                                                                                                                                                                                                                                                                                                                                                                                                                                 

|--------------|----------------------------|

|--------------|----------------------------|

|-5--5-(5)-5-5-|-(5)-5--5-(5)-5-(5)--5-5----|

|-7--5-(5)-5-3-|-(3)-3--5-(5)-5-(5)---------|

|-8--3-(3)-3-4-|-(4)-4--6-(6)-6-(6)------3--|

|--------------|----------------------------|

 4/46/4
                                                                                                                                                                                                                                                                                                                                                                                                                                                                                                                                                                 

|--------------|---------------------------|

|--------------|---------------------------|

|-5--5-(5)-5-5-|-(5)-5--5-(5)-5-(5)--5-----|

|-7--5-(5)-5-3-|-(3)-3--5-(5)-5-(5)----8---|

|-8--3-(3)-3-4-|-(4)-4--6-(6)-6-(6)--------|

|--------------|---------------------------|

 4/44/4
                                                                                                                                                                                                                                                                                                                                                                                                                                                                                                                                                                 

|--------------|--------------------|

|--------------|--------------------|

|-5--5-(5)-5-5-|-(5)-5--5-(5)-5-(5)-|

|-7--5-(5)-5-3-|-(3)-3--5-(5)-5-(5)-|

|-8--3-(3)-3-4-|-(4)-4--6-(6)-6-(6)-|

|--------------|--------------------|

$
 2/44/44/42/4
  Gtr I   
                                                                                                                                                                                                                                                                                                                                                                                                                                                                                                                                                                 

|---------|---------------|--------------------|---------|

|---------|---------------|--------------------|---------|

|-5---0---|-5--5-(5)-5--5-|-(5)-5--5-(5)-5-(5)-|-5---0---|

|---6-----|-2--2-(2)-2--3-|-(3)-3--5-(5)-5-(5)-|---6-----|

|-------3-|-3--3-(3)-3--4-|-(4)-4--6-(6)-6-(6)-|-------3-|

|---------|---------------|--------------------|---------|

 4/42/4
                                                                                                                                                                                                                                                                                                                                                                                                                                                                                                                                                                 

|-----------------|--------------------|---------|

|-----------------|--------------------|---------|

|-5--5--(5)--5--5-|-(5)-5--5-(5)-5-(5)-|-5---0---|

|-2--2--(2)--2--3-|-(3)-3--5-(5)-5-(5)-|---6-----|

|-3--3--(3)--3--4-|-(4)-4--6-(6)-6-(6)-|-------3-|

|-----------------|--------------------|---------|

 4/42/4
                                                                                                                                                                                                                                                                                                                                                                                                                                                                                                                                                                 

|-----------------|--------------------|---------|

|-----------------|--------------------|---------|

|-5--5--(5)--5--5-|-(5)-5--5-(5)-5-(5)-|-5---0---|

|-2--2--(2)--2--3-|-(3)-3--5-(5)-5-(5)-|---6-----|

|-3--3--(3)--3--4-|-(4)-4--6-(6)-6-(6)-|-------3-|

|-----------------|--------------------|---------|

To Coda
 4/46/4
                                                                                                                                                                                                                                                                                                                                                                                                                                                                                                                                                                 

|-----------------|-------------------------|

|-----------------|-------------------------|

|-5--5--(5)--5--5-|-(5)-5--5-(5)-5-(5)--5---|

|-2--2--(2)--2--3-|-(3)-3--5-(5)-5-(5)----8-|

|-3--3--(3)--3--4-|-(4)-4--6-(6)-6-(6)------|

|-----------------|-------------------------|

Verse
 5/44/46/44/4
  Gtr I   
                                                                                                                                                                                                                                                                                                                                                                                                                                                                                                                                                                 

|---------|----------------------|------------|----------------------|

|---------|----------------------|------------|----------------------|

|---------|----------------------|------------|----------------------|

|-6-(6)-5-|-(5)-5--8--(8)--(8)-6-|-(6)-(6)--5-|-(5)-5--8--(8)--(8)-6-|

|-8-(8)-7-|-(7)-7-10-(10)-(10)-8-|-(8)-(8)--7-|-(7)-7-10-(10)-(10)-8-|

|-9-(9)-8-|-(8)-8-11-(11)-(11)-9-|-(9)-(9)--8-|-(8)-8-11-(11)-(11)-9-|

 6/44/46/44/4
                                                                                                                                                                                                                                                                                                                                                                                                                                                                                                                                                                 

|-----------|----------------------|------------|----------------------|

|-----------|----------------------|------------|----------------------|

|-----------|----------------------|------------|--------------------5-|

|-(6)-(6)-5-|-(5)-5--8--(8)--(8)-6-|-(6)-(6)--5-|-(5)-5--8--(8)--(8)-7-|

|-(8)-(8)-7-|-(7)-7-10-(10)-(10)-8-|-(8)-(8)--7-|-(7)-7-10-(10)-(10)-8-|

|-(9)-(9)-8-|-(8)-8-11-(11)-(11)-9-|-(9)-(9)--8-|-(8)-8-11-(11)-(11)---|

Chorus
 4/46/4
                                                                                                                                                                                                                                                                                                                                                                                                                                                                                                                                                                 

|--------------|---------------------------|

|--------------|---------------------------|

|-5--5-(5)-5-5-|-(5)-5--5-(5)-5-(5)--5-----|

|-7--5-(5)-5-3-|-(3)-3--5-(5)-5-(5)----8---|

|-8--3-(3)-3-4-|-(4)-4--6-(6)-6-(6)--------|

|--------------|---------------------------|

 4/46/4
                                                                                                                                                                                                                                                                                                                                                                                                                                                                                                                                                                 

|--------------|---------------------------|


C C5 Em/C
variations - click chord images
Transpose chords:
Tuning:
Cool service:
View: Size:
A  A  A
Rating:
Layout:
  • Currently 0/5 Stars.
  • 1
  • 2
  • 3
  • 4
  • 5
 
Accuracy:
  • Currently 0/5 Stars.
  • 1
  • 2
  • 3
  • 4
  • 5
 
click stars to rate
Chordie recommends:
Check out JamPlay.com for online video guitar lessons
Songbook:
Login to add this song to your songbook
Support the artist
Preview/buy this song
MSN Music
Why this non-profit ad?

 
login to add comments/video/corrections