""; ?> Kanlungan by Noel Cabangon - guitar chords, guitar tabs and lyrics - chordie

Kanlungan

Noel Cabangon

sigurado na ako rito, masyadong detalyado
kaya praktisin n'yong mabuti

ito 'yung mga chords na ginamit:

Esus4/A - x02200 Dsus4 - xx0233
Gm/maj7 - 300332 D - xx0232
Bm - x24432 G - 320003
Gsus2 - 300033 G6 - 320030
Dsus4/B - x20233 A - x02220
h - hammer-on
p - pull-off
/ - slide-up

capo on 2nd fret

intro:

 DG/BG6
e|-0h2-----3-------3---------|-------------------------------0--------|
B|-3-----3-------3-----3-3-3-|-------3-----3-------3-------3-3-----3--|
G|-----2-------0-------0-----|-----0---------0-------2-----------2----|
D|-0-------------------------|---0-------0-------0-------2-----2------|
A|-----------2-------2-------|-2-----------------------------0--------|
E|---------------------------|---------3-------2-------0--------------|


(*)

 Dsus4Gsus2Esus4/A
pana-panahon ang pagkakata- on
e|-------3------------------------0--|
B|-----3---3---3--------3-------0----|
G|---2-----------2--------0-----2----|
D|-0---------0--------0-------2------|
A|---------2----------------0--------|
E|------------------3----------------|


 Dsus4Gsus2Esus4/ABm
 maibabalik ba ang kahaa-    pon
e|--------3----------------------2-------------2-|
B|------3-------3--------0---------3-------2-----|
G|----2-----------0--------2-------4-------4-----|
D|--0---------0--------2-------4---------4-------|
A|-------------------0-------2---------2---------|
E|----------3------------------------------------|


 G6
e|-----------------------0-------0-|
B|-----3-------3-------3-3-----3---|
G|-------0-------2-----------2-----|
D|---0-------0-------2-----2-------|
A|-----------------------0---------|
E|-3-------2-------0---------------|


verses

verse 1:

 GEsus4/ABm
 Natatanda-an mo pa ba
e|----------------------2-------------2--|
B|-----0-------0----------3-------2------|
G|-------0-------2--------4-------4------|
D|---0-------2--------4---------4--------|
A|---------0--------2---------2----------|
E|-3-------------------------------------|


 GEsus4/ADsus4Bm
nu'ng tayong dal'way   unang magki-ta
e|----------------------------3-----------|
B|---------0--------0-------3----------3--|
G|-----------0--------2---2------------4--|
D|-------0--------2-----0------------4----|
A|--------------0------------------2------|
E|-----3----------------------------------|


 GEsus4/ABmGEsus4/ABm
panahon ng kamusmu-  san              sa piling ng mga bulaklak at hala-man
e|-----------------------2---------2----|-----------------------------------|
B|------0--------0---------3---------2--|-----0--------0--------3-------3---|
G|--------0--------2-------4---------4--|-------0--------2--------4-----4---|
D|----0--------2-------4---------4------|---0--------2--------4-------------|
A|-----------0-------2---------2--------|----------0--------2--------2------|
E|--3-----------------------------------|-3-----------------------------2---|


 GEsus4/ABmGEsus4/ABm
 doon tayo nagsimu-la                mangarap   at  tumula
e|---------------------2-------------2-|---------------------------------2-|
B|-----0-------0---------3-------2-----|-----0-------0-------3---2-----2---|
G|-------0-------2-------4-------4-----|-------0-------2-----4---------4---|
D|---0-------2-------4---------4-------|---0-------2-------4---------4-----|
A|---------0-------2---------2---------|---------0-------2---------2-------|
E|-3-----------------------------------|-3---------------------------------|


 G6
e|-----------------------0---------0-|
B|-----3-------3-------3-3-------3---|
G|-------0-------2-------------------|
D|---0-------0-------2-------2-------|
A|-----------------------0-----------|
E|-3-------2-------0-----------------|


verse 2

 GEsus4/AD
  ...ang gunita ng  ating kahapon      (chorus 1)
e|-------------------------0------2---2--------|
B|---------------0-------0--------3---3-----3--|
G|-----------------0------------2---------2----|
D|-------------0-------2------0-----0---0------|
A|-------------------0-------------------------|
E|-----------3---------------------------------|


chorus 1:
 GEsus4/ABmGEsus4/ABm
ang mga  puno't  halaman       ay kabiyak ng  ating gunita

e|----------------------2-----------2-|---------------------2---------2---|
B|------0-------0---------3-------2---|-----0-------0---------3---------2-|
G|--------0-------2-------4-------4---|-------0-------2-------4---------4-|
D|----0-------2-------4---------4-----|---0-------2-------4---------4-----|
A|----------0-------2---------2-------|---------0-------2---------2-------|
E|--3---------------------------------|-3---------------------------------|


 GEsus4/ABmG6A
sa paglipas   ng pana-hon     bakit   kailangan  d'ing lumisan?..
e|----------------------------2---------2----------------------------0----|
B|---------0-------0--------3---------3-------3-------3----------2-----0--|
G|-----------0-------2------4-------------------4-------0--------2p0------|
D|-------0-------2--------4---------4-------0-------0-------2----------2--|
A|-------------0--------2---------2-----------------------0---------------|
E|-----3----------------------------------4-------3-----------------------|


repeat (*)
 Esus4/ABm
.....kahaa-     pon
e|-----------0------2-------------2--|
B|---------0----------3-------2------|
G|--------------------4-------4------|
D|-------2--------4---------4--------|
A|-----0--------2---------2----------|
E|-----------------------------------|


Interlude part:
(ito 'yung mahirap na part, kailangan medyo mabilis yung pag-slide
saka pag-hammer)

 DGG6
e|---0h2-3-----3/5\3---0---------0-----------------------0-------0--|
B|---3-------------------3-3---3-------3-------3-------3-3-----3----|
G|-----------0---------------------------0-------2------------------|
D|-0---------------------------------0-------0-------2-------2------|
A|-------------------2-------0---------------------------0----------|
E|---------3-----------------------3-------2-------0----------------|


verse 3

 GEsus4/AD
...saan hahanapin pa..         (chorus 2)
e|-----------------0------2---0---2----|
B|-------0-------0--------3---3---3----|
G|---------0------------2-----------2--|
D|-----0-------2------0-----0---0------|
A|-----------0-------------------------|
E|---3---------------------------------|


chorus 2:

 GEsus4/ABmGEsus4/ABm
lumilipas   ang panahon             kabiyak ng ating gunita
e|----------------------2-------------2-|---------------------2---------2---|
B|------0-------0---------3-------2-----|-----0-------0---------3---------2-|
G|--------0-------2-------4-------4-----|-------0-------2-------4---------4-|
D|----0-------2-------4---------4-------|---0-------2-------4---------4-----|
A|----------0-------2---------2---------|---------0-------2---------2-------|
E|--3-----------------------------------|-3---------------------------------|


 GEsus4/ABmG6A
 ang mga puno't   halaman          bakit kailangang lumisan?..
e|-------------------------2-------2------------------------------0---|
B|-------0-------0-------3-------3-------3-------3------------2-----0-|
G|---------0-------2-----4-----------------4-------0----------2p0-----|
D|-----0-------2-------4-------4-------0-------0---------2----------2-|
A|-----------0-------2-------2-------------------------0--------------|
E|---3-------------------------------4-------3------------------------|


repeat (*)

(strumming part)
.....kahapon.. Bm Gm/maj7 Esus4/A Bm
e|------------0----2---2----2-----2----0h2---2----0---0----2--------|
B|----------0------3---3----3-----3----3-----3----0---0----3--------|
G|-----------------4---4----4-----4----3-----3----2---2----4--------|
D|--------2--------4---4----4-----4----0-----0----2---2----4--------|
A|------0----------2---2----2-----2----0-----0----0---0----2--------|
E|-----------------x---x----x-----x----3-----3----x---x----x--------|


(mabilis ang pagpalit dito ng chords; D-Bm)
 Gm/maj7Esus4/ADDBm
e|--2-----2----0h2---2----0---0----0h2---2----2----2----|
B|--3-----3----3-----3----0---0----3-----3----3----3----|
G|--4-----4----3-----3----2---2----2-----2----4----4----|
D|--4-----4----0-----0----2---2----0-----0----4----4----|
A|--2-----2----0-----0----0---0---------------2----2----|
E|--x-----x----3-----3----x---x---------------x----x----|


 Gm/maj7Esus4/ABm
e|-0h2---2----0---0----2-----------2-----2----|
B|-3-----3----0---0----3-----------3-----3----|
G|-3-----3----2---2----4-----------4-----4----|
D|-0-----0----2---2----4-----------4-----4----|
A|-0-----0----0---0----2-----------2-----2----|
E|-3-----3----x---x----x-----------x-----x----|


 Gm/maj7Esus4/ADD
e|--0h2---2----0---0----0h2---2---2---|
B|--3-----3----0---0----3-----3---3---|
G|--3-----3----2---2----2-----2---2---|
D|--0-----0----2---2----0-----0---0---|
A|--0-----0----0---0------------------|
E|--3-----3----x---x------------------|


chorus 2:

 Gm/maj7Esus4/ABm
lumilipas       ang panaaa-  hon
e|---0h2---2----0---0----2---------------2-----2---|
B|---3-----3----0---0----3---------------3-----3---|
G|---3-----4----2---2----4---------------4-----4---|
D|---0-----0----2---2----4---------------4-----4---|
A|---0-----0----0---0----2---------------2-----2---|
E|---3-----3----x---x----x---------------x-----x---|


 Gm/maj7Esus4/ABm
 kabiyak ng   a-ting   gunita
e|-----0h2---2-----0---0--------3---------2----|
B|-----3-----3-----0---0----------3---------2--|
G|-----3-----3-----2---2----------4---------4--|
D|-----0-----0-----2---2------4---------4------|
A|-----0-----0-----0---0----2---------2--------|
E|-----3-----3-----x---x-----------------------|


 GEsus4/ABmG6A
ang mga puno't   halaman            bakit kailangang  lumisan?..
e|------------------------2---------2-------------------------------0---|
B|------0-------0-------3---------3-------3-------3-------------2-----0-|
G|--------0-------2-----4-------------------4-------0-----------2p0-----|
D|----0-------2-------4---------4-------0-------0----------2----------2-|
A|----------0-------2---------2--------------------------0--------------|
E|--3---------------------------------4-------3-------------------------|


repeat (*)

 Esus4/ABm
.....ang kahapon..   

e|----------------0-----2-------------2----|
B|--------------0---------3-------2--------|
G|------------------------4-------4--------|
D|------------2-------4---------4----------|
A|----------0-------2---------2------------|
E|-----------------------------------------|


(ito na 'yung last part)

 G6G6
e|-----------------------0---0h1p0--------------------------0--0h1-1p0-0--|
B|-----3-------3-------3-----3---------3-------3---------3-----3---3------|
G|-------0-------2-----------------------0-------2------------------------|
D|---0-------0-------2-----2-----2---0-------0--------2----------2--------|
A|-----------------------0-------------------------------------0----------|
E|-3-------2-------0---------------3-------2-------0----------------------|


 DDsus4
e|--------2-------3--|
B|------3---3---3-3--|
G|----2-------2---2--|
D|-0--------------0--|
A|-------------------|
E|-------------------|


Kanlungan
-Noel Cabangon

intro
pana-panahon ang pagkakataon
maibabalik ba ang kahapon

verse 1
natatandaan mo pa ba
n'ung tayong dal'way unang magkita
panahon ng kamusmusan
sa piling ng mga bulaklak at halaman
doon tayo nagsimula
mangarap at tumula

verse 2
natatandaan mo pa ba
inukit kong puso sa punong mangga
at ang inalay kong gumamela
magkahawak kamay sa dalampasigan
malayang tulad ng mga ibon
ang gunita ng ating kahapon

chorus1
ang mga puno't halaman
ay kabiyak ng ating gunita
sa paglipas ng panahon
bakit kailangan d'ing lumisan

panapanahon ang pagkakataon
maibabalik ba ang kahapon

interlude

verse3
ngayong ikaw ay nagbalik
tulad ko rin ang 'yong pananabik
makita ang dating kanlungan
tahanan ng ating tula at pangarap
ngayon ay naglaho na
saan hahanapin pa

chorus 2
lumilipas ang panahon
kabiyak ng ating gunita
ang mga puno't halaman
bakit kailangang lumisan

pana-panahon ang pagkakataon
maibabalik ba ang kahapon

(strumming part)

chorus 2
lumilipas ang panahon
kabiyak ng ating gunita
ang mga puno't halaman
bakit kailangang lumisan

pana-panahon ang pagkakataon
maibabalik ba ang kahapon
.
yun lang, pero kailangan ring pakinggan ng mabuti
'yung kanta saka 'yung melody para sa timing.

kung merong gustong sabihin i-email na lang,
praktising mabuti dahil masyadong mahusay 'yung kanta,
magandang tugtugin.

end.

END

+--------------------------------------------------------------------------+

| This file is the author's own work and represents their interpretation |
| of the song. You may only use this file for private study, scholarship, |
| or research. |
+--------------------------------------------------------------------------+


Ultimate-Guitar.Com © 2005


A Bm D Dsus4 Esus4/A G G/B G6 Gsus2
variations - click chord images
Transpose chords:
Tuning:
Cool service:
View: Size:
A  A  A
Rating:
Layout:
  • Currently 4.5/5 Stars.
  • 1
  • 2
  • 3
  • 4
  • 5
 
Accuracy:
  • Currently 4.5/5 Stars.
  • 1
  • 2
  • 3
  • 4
  • 5
 
click stars to rate
Chordie recommends:
Learn to play this song & others via video guitar lessons at JamPlay.com
Songbook:
Login to add this song to your songbook
Support the artist
Preview/buy this song
MSN Music
Why this non-profit ad?

 
login to add comments/video/corrections