eToCache5 = ""; ?> Is There Anybody There by Scorpions - guitar chords, guitar tabs and lyrics - chordie

Is There Anybody There

Scorpions

|-------------------------------------------------------------------------|

|-------------------------------------------------------------------------|

 D5C5B5E5D5C5B5
 Ah                   

(intro x2)

(verse1)

 Bm
 Open my mind ...
 BmA
 Tell me the way ...   
 ABm
    And a place ...    

 Bm
 Where is ...
 BmA
 Show me ...         
 ABm
    'Cause I'm ...   

"Now you should use an overdrive or distortion device for the chorus."

(chorus)

 GADBm
Is there anybody ...                    
 GBm
Who shows ...     
 GADBm
Is there anybody ...                    
 GBm
To bring ...       

(intro x2)

(verse2)

 Bm
 I find myself ...
 BmA
 Life's like ...    
 ABm
    Where's ...     

 Bm
 Save me ...
 BmA
I need ...
 ABm
    In the darkness ...  

(chorus)

 GADBm
Is there anybody ...                    
 GBm
Who shows ...     
 GADBm
Is there anybody ...                    
 GBm
To bring ...       

(intro x2)

(Solo)
(not transcribed yet)
"The chord used during the solo is Bm with a funky rythm"

(chorus)

 GADBm
Is there anybody ...                    
 GBm
Who shows ...     
 GADBm
Is there anybody ...                    
 GBm
To bring ...       

(intro x2)

Voices for outro: (overdrive or distortion)
 D5C5B5E5D5C5B5
 Ah                   

*******************************************
* Intro guitar rythm is transcribed here: *
*******************************************

Guitar 1: (shuffle rythm) (This rythm is used in the verses and the solo)

 Bm
     |--|  |--|    |--|  |--|

| | | | | | | |
. .
e||--x--x--7--7----x--x--7--7--||
B||--x--x--7--7----x--x--7--7--||
G||--x--x--8--8----x--x--8--8--||
D||--x--x--9--9----x--x--9--9--|| Repeat
A||--x--x--9--9----x--x--9--9--||
E||--x--x--7--7----x--x--7--7--||


Guitar 2:

 D5E5
         |     |
__| |
/_/ . /

e||---------------||
B||---------------||
G||----7-------9--||
D||----7-------9--||
A||----5-------7--||
E||---------------||


Legend:

. : staccato (instantly release left hand pressure)

Chords:

 BmD5E5C5B5AGD
e||--7-------------------5---3---5---||
B||--7-------------------5---3---7---||
G||--8---7---9---5---4---6---4---7---||
D||--9---7---9---5---4---7---5---7---||
A||--9---5---7---3---2---7---5---5---||
E||--7-------------------5---3-------||


END

+--------------------------------------------------------------------------+

| This file is the author's own work and represents their interpretation |
| of the song. You may only use this file for private study, scholarship, |
| or research. |
+--------------------------------------------------------------------------+


Ultimate-Guitar.Com © 2005


A B5 Bm C5 D D5 E5 G
variations - click chord images
Transpose chords:
Tuning:
Cool service:
View: Size:
A  A  A
Rating:
Layout:
  • Currently 0/5 Stars.
  • 1
  • 2
  • 3
  • 4
  • 5
 
Accuracy:
  • Currently 0/5 Stars.
  • 1
  • 2
  • 3
  • 4
  • 5
 
click stars to rate
Chordie recommends:
Learn how to play guitar at JamPlay.com
Songbook:
Login to add this song to your songbook
Support the artist
Preview/buy this song
MSN Music
Why this non-profit ad?

 
login to add comments/video/corrections