Chordie logo


Alab Ng Puso  Rivermaya



 E---9---9---9-9-9---7---10---10-10-10-------|

B---7---7---7-7-7---5---8-----8--8--8-------|
G-------------------------------------------|
D-------------------------------------------|
A-------------------------------------------|
E-------------------------------------------|
E---7---9---7---9-------10---10-10-10-------|
B---5---7---5---7---8----8----8--8--8-------|
G-------------------9-----------------------|
D-------------------------------------------|
A-------------------------------------------|
E-------------------------------------------|
E-------------------------------------------|
B-------------------------------------------|
G-------------------------------------------|
D-------------------------------------------|
A-------6------6---6-----6------6---6-------|
E---4-------4----4-----3-----3----3---------|
E--------------------------------------------|
B-------------------------9/11--9-6-7--------|
G-------7---7-9-9/11-9/11-------------9-7----|
D---6/9---9----------------------------------|
A--------------------------------------------|
E--------------------------------------------|
E-----------------------------------|
B------------------6----------------|
G---------7-9-9-6----9-7-----7------|
D---9-9-9----------------9-9---9----|
A-----------------------------------|
E-----------------------------------|
E-------------------------12-10-9-14--10------------------|
B-------------------10-------------------12--10-12--p10---|
G---10h11p10---7-10----10---------------------------------|
D------------9--------------------------------------------|
A---------------------------------------------------------|
E---------------------------------------------------------|
E---14-12-10-12-10----10-------10-------10-------10-------------10------|
B------------------14----14-12----12-10----14-12----12-10-7--10-----12--|
G-----------------------------------------------------------------------|
D-----------------------------------------------------------------------|
A-----------------------------------------------------------------------|
E-----------------------------------------------------------------------|
E---5-5-5-5-5-5-5-5-7-7-7-7-3-3-3-3-----|
B---7-7-7-7-5-5-5-5-7-7-7-7-3-3-3-3-----|
G---7-7-7-7-6-6-6-6-7-7-7-7-4-4-4-4-----|
D---------------------------------------|
A---------------------------------------|
E---------------------------------------|
[D] Lumuha ka, kung hindi mo mapigilang umi[Bm]yak
Mata[A]gal kang naghin[G]tay kaibigan
[D] Umawit ka, paabutin mo sa langit ang ta[Bm]mis ng sanda[A]ling ibini[G]gay
Tagum[D]pa-a a a[A]--a a a [Bm]ay (2x)  [G]
[D] Alab ng [A]Puso, kailan[Bm]ma'y di su[G]muko
Tagum.[D]..pa.....[A].........[Bm]ay         [G]
FILL:
. . . .
 E----------------------------------------------------------------------|
 B---5-5-5--5-5-5-5-5-5-5--5-5-5-5-2-2-2--2-2-2-2-3-3-3---3-3-3-3-------|
 G----------------------------------------------------------------------|
 D----------------------------------------------------------------------|
 A----------------------------------------------------------------------|
 E----------------------------------------------------------------------|


.
 E-----------------------------------------------------------------------|
 B---5-5-5--5/7-7-7-7h8-8-8-8p7-7-7-7\5-5-5-5\3-3-3-3/5-5-5-5-5-5--------|
 G-----------------------------------------------------------------------|
 D-----------------------------------------------------------------------|
 A-----------------------------------------------------------------------|
 E-----------------------------------------------------------------------|
 E------10----10----10----12----12----14----14---|
 B---10----10----10----10----10----10----10------|
 G-----------------------------------------------|
 D-----------------------------------------------|
 A-----------------------------------------------|
 E-----------------------------------------------|
 E------10----10----10----12----10----9----10----|
 B---10----10----10----10----10----10---10-------|
 G-----------------------------------------------|
 D-----------------------------------------------|
 A-----------------------------------------------|
 E-----------------------------------------------|


END

+--------------------------------------------------------------------------+

| This file is the author's own work and represents their interpretation |
| of the song. You may only use this file for private study, scholarship, |
| or research. |
+--------------------------------------------------------------------------+


Ultimate-Guitar.Com © 2005

Important: The song above is NOT stored on the Chordie server. The original song is hosted at www.ultimate-guitar.com. Chordie works as a search engine and provides on-the-fly formatting. Chordie does not index songs against artists/composers will. To remove this song please click here.

Text color:
Chord color:
Chord grids: 
Font size:    
Page size: 

A Bm D G
variations - click chord images

Login - add to songbook

Transpose chords

Tuning

Rating click stars to rate

Layout
Accuracy

SHARE PAGE  




You need to log in to post comments