Iisang Bangka

Dawn

E|-------|

B|-------|
G|-------|
D|--2~~--|
A|--2~~--|
E|--0~~--|
E|---------------------------------|
B|----9---10---12---10---9h10p9----|
G|--9---9----9----9----9--------9--|
D|---------------------------------|
A|---------------------------------|
E|---------------------------------|
E E |-----|
E|--------------------------------------|
B|--------------------------------------|
G|----------------------------4~~-------|
D|----------2--------------2--4~~--2~~--|
A|----------2--------------2--2~~--2~~--|
E|--0-0-0-0-0--0-0-0-0-0-0-0--0~~--0~~--|

 E
 kay dilim at kay ginaw
sa kalawakan ng dagat
ubod lakas kung humiyaw
itong galit na hangin habagat
ngunit bua ang puso mo
ang daluyong ay susugurin B-A
magkasama tayo katahimikay hahanapin

stanza II(same as stanza I)
(rythm)
 EE
                                                                                                         
E|----------------------------|

B|----------------------------|
G|----------------------------|
D|----------2--------------2--|
A|----------2--------------2--|
E|--0-0-0-0-0--0-0-0-0-0-0-0--|
. . . . . . . . . .
 E
 saan ang tungo mo mahal kong kaibigan?

sa sasadyain hanap koy katahimikan
basta\'t tayoy magkasama laging sasabayan
 B
pinag samahay nasa puso kaibigan kabarkada
 A5
iharap natin ang layag sa humahawi na hangin
 C
kapit bisig tayong hanging galit ay hahawiin

refrain I:
E|----------------------|

B|----------------------|
G|-------6---------4----|
D|--2----6----7----4----|
A|--2----4----7----2----|
E|--0----0----5----0----|
 EC#
dahon ng damo na tangay ng hangin
 EC#
at hindi mo matanaw, kunn saan ka dadalhin
 A5B5EC#
ngunit kasama mo ako, nakabigkis sa puso mo 
 A5BE
daluyong ng dagat ang tatawirin natin

Interlude:
E|----------------------------------------AH--------AH w/tremolo--------|

B|----9---10---12---10---9h10p9------9---<10>-12---<10>-10-9h10p9-10----|
G|--9---9----9----9----9--------9--9---9----9----9-------------------9--|
D|----------------------------------------------------------------------|
A|----------------------------------------------------------------------|
E|----------------------------------------------------------------------|

repeat stanza II

refrainII:(same as refrain I)
 EC#
ating liliparin may harang mang sibat
 EC#
ating tatawirin daluyong ng dagat
 A5B5EC#
pagkat kasama mo ako, iisang bangka tayo
 ABE
daluyong ng dagat ang tatawirin natin

(Interlude Ist part)
(repeat refrain II)
repeat Interlude 1st part unti fade)

leander_85@yahoo.com
09212165529

END

+--------------------------------------------------------------------------+

| This file is the author\'s own work and represents their interpretation |
| of the song. You may only use this file for private study, scholarship, |
| or research. |
+--------------------------------------------------------------------------+


Ultimate-Guitar.Com © 2005


A A5 B B5 C C# E
variations - click chord images
Transpose chords:
Tuning:
Cool service:
View: Size:
A  A  A
Rating:
Layout:
  • Currently 0/5 Stars.
  • 1
  • 2
  • 3
  • 4
  • 5
 
Accuracy:
  • Currently 3.7/5 Stars.
  • 1
  • 2
  • 3
  • 4
  • 5
 
click stars to rate
Chordie recommends:
Get acoustic guitar lessons and electric guitar lessons at JamPlay.com
Songbook:
Login to add this song to your songbook
Support the artist
Preview/buy this song
MSN Music
Why this non-profit ad?

 
login to add comments/video/corrections