Sheepdog

Mando Diao

-------------------------------------------------------------------------------

-------------------------------------------------------------------------------
e|---------------------------------------------------------------------------|
B|---------------------------------------------------------------------------|
G|---------------------------------------------------------------------------|
D|-9-9-7-9-7-----------------------------------------------------------------|
A|-----------9-8-7-7-5-7-5---5-----------------------------------------------|
E|-------------------------7-------------------------------------------------|

 Bm
 I aim at the first one who'll dare to stand still
 D
Oh Lord, you're tension is making me ill
 Em
You've got no friends in your home, you'll got no family stone
 F#F#
You can't go: Yeah Yeah Yeah, Yeah Yeah Yeah
(same chords again)
Everyone, in every town, on every boat, on every trip, the multi-talanted strip,
Will gather 'round you with coke and pain
The trees, ain't no doubt about
The seeds, I had no thought about
No, Yeah Yeah Yeah

Chorus:
 GA
Don't know why I can't locate this feeling,
 DD/C#Bm
that I would rather be with you
 GF#
It makes no sense, your crying out loud,
Bm*
that I may love you

*riff (Guitar 1)
e|---------------------------------------------------------------------------|
B|---------------------------------------------------------------------------|
G|---------------------------------------------------------------------------|
D|-9-9-7-9-7-----------------------------------------------------------------|
A|-----------9-8-------------------------------------------------------------|
E|---------------7-7-5-7-5-2-0-----------------------------------------------|


 GA
This stress is wasting my emotions
 DD/C#Bm
that I would rather be with you 
G F# (let ring)
Don't let them closer to this secret...

*intro riff
that I may love you

Verse:
Take 'em outa west, take 'em outa height, take 'em on a sweet ride
Those little angels are numbered nine
The colored TV once shined on desolation 1-5
They've got it! Yeah Yeah Yeah
Bust 'em in the light, bust 'em in the light, BUST 'EM IN THE DAYLIGHT
They ain't worthy being named as thieves
One of those shorties said hi up to the abbot who died
The rebound, Yeah Yeah Yeah

Chorus:
Don't know why I...

Guitar 1
Solo:
e|---------------------------------------------------------------------------|
B|---------------------------------------------------------------------------|
G|------------------------9999999910101010101010101111111111111111-----------|
D|999999991212121212121212---------------------------------------------------|
A|---------------------------------------------------------------------------|
E|---------------------------------------------------------------------------|
e|------------------------------------------------|---10-9-------------------|
B|101010101010101012121212121212121010101010101010|12------12-10---repeat----|
G|------------------------------------------------|--------------------------|
D|------------------------------------------------|--------------------------|
A|------------------------------------------------|--------------------------|
E|------------------------------------------------|--------------------------|
e|----------------------|-----------------------------------------------|
B|-12-10----------------|-----------------------------------------------|
G|-------11-10-9--------|11-11-9-11-9-----------------------------------|
D|---------------12-9---|-------------11-10-----------------------------|
A|--------------------12|-------------------9-9-7-9-7---7-9-9-7-9-7-----|
E|----------------------|-----------------------------9-------------9-8-|
e|------------|
B|------------|
G|------------|
D|------------|
A|------------|
E|-2-2-2-5-5-5|


Guitar 2 during the solo plays intro riff

Now hear the bluebird whistle hymns like "I would rather heal your wounds"
now hear the dark gun punching out, that I may love you

Outro riff (same as intro riff, repeat alot)

That is it. If you're interested in other Mando Diao tabs please let me know.

| / slide up
| \ slide down
| h hammer-on
| p pull-off
| ~ vibrato
| + harmonic
| x Mute note
===============================================================================

END

+--------------------------------------------------------------------------+

| This file is the author's own work and represents their interpretation |
| of the song. You may only use this file for private study, scholarship, |
| or research. |
+--------------------------------------------------------------------------+


Ultimate-Guitar.Com © 2005


A Bm D D/C# Em F# G
variations - click chord images
Transpose chords:
Tuning:
Cool service:
View: Size:
A  A  A
Rating:
Layout:
  • Currently 5/5 Stars.
  • 1
  • 2
  • 3
  • 4
  • 5
 
Accuracy:
  • Currently 5/5 Stars.
  • 1
  • 2
  • 3
  • 4
  • 5
 
click stars to rate
Chordie recommends:
Get acoustic guitar lessons and electric guitar lessons at JamPlay.com
Songbook:
Login to add this song to your songbook
Support the artist
Preview/buy this song
MSN Music
Why this non-profit ad?

 
login to add comments/video/corrections