Dig A Pony

Beatles

------------------------------------------------------------------

------------------------------------------------------------------

9/8 Time

 GD
e|3-------- --------- ---------|2-------- --------- ---------|
B|3----------------------------|3----------------------------|
G|0----------------------------|2----------------------------|
D|0----------------------------|0----------------------------|
A|2----------------------------|-----------------------------|
E|3----------------------------|-----------------------------|
e|--------- --------- ---------|--------- --------- ---------|
B|-----------------------------|-----------------------------|
G|-----------------------------|--------------------7--------|
D|--------------------5--------|----------7-----9---------9--|
A|----------5-----7---------7--|5--/--9----------------------|
E|3--/--7----------------------|-----------------------------|


 A
e|0-----0-- 0-----0-- ---------|0-----0-- 0-----0-- 0--------|
B|2-----2---2-----2------------|2-----2---2-----2---2--------|
G|2-----2---2-----2------------|2-----2---2-----2---2--------|
D|2-----2---2-----2------------|2-----2---2-----2---2--------|
A|0-----0---0-----0------------|0-----0---0-----0---0--------|
E|-----------------------------|-----------------------------|
e|--------- --------- ---------|--------- --------- ---------|
B|-----------------------------|-----------------------------|
G|-----------------------------|-----------------------------|
D|7-----7---7------------------|------7----------------------|
A|7-----7---7---------------7--|8-H-9-----9-----7---------0--|
E|5-----5---5-----8---9--------|---------------------8-H-9---| 


 GD
e|3-------- --------- ---------|2-------- --------- ---------|
B|3----------------------------|3----------------------------|
G|0----------------------------|2----------------------------|
D|0----------------------------|0----------------------------|
A|2----------------------------|-----------------------------|
E|3----------------------------|-----------------------------|
e|--------- --------- ---------|--------- --------- ---------|
B|-----------------------------|-----------------------------|
G|-----------------------------|--------------------7--------|
D|--------------------5--------|----------7-----9---------9--|
A|----------5-----7---------7--|5--/--9----------------------|
E|3--/--7----------------------|-----------------------------|


 A
e|0-----0-- 0-------- 0--------|0--0--0-- 0-------- 0--------|
B|2-----2---2---------2--------|2--2--2---2---------2--------|
G|2-----2---2---------2--------|2--2--2---2---------2--------|
D|2-----2---2---------2--------|2--2--2---2---------2--------|
A|0-----0---0---------0--------|0--0--0---0---------0--------|
E|-----------------------------|-----------------------------|
e|--------- --------- ---------|--------- --------- ---------|
B|-----------------------------|-----------------------------|
G|-----------------------------|-----------------------------|
D|7-----7---7------------------|------7----------------------|
A|7-----7---7---------------7--|8-H-9-----9-----7---------7--|
E|5-----5---5-----8---9--------|---------------------8-H-9---| 


 A6sus4AA6sus4
e|--------- ------5-- ---------|--------- ------5-- ---------|
B|2---------2-----2---3--------|2---------------2---2-H-3----|
G|2---------2-----2---2--------|2---------------2---2--------|
D|2---------2-----2---4--------|2---------------2---2-H-3----|
A|0---------0-----0---0--------|0---------------0---0--------|
E|-----------------------------|-----------------------------|

I hi hi hi

 AA6sus4A

e|--------- ------5-- ---------|--------- ------5-- ------5--|
B|2---------2-----2---3--------|2---------2-----2---2-----2--|
G|2---------2-----2---2--------|2---------2-----2---2-----2--|
D|2---------2-----2---4--------|2---------2-----2---2-----2--|
A|0---------0-----0---0--------|0---------0-----0---0-----0--|
E|-----------------------------|-----------------------------|

hi dig a pony

 F#m
e|2-------- 2-----2-- 2-----2--|2-------- 2-----2-- 2-----2--|
B|2---------2-----2---2-----2--|2---------2-----2---2-----2--|
G|2---------2-----2---2-----2--|2---------2-----2---2-----2--|
D|4---------4-----4---4-----4--|4---------4-----4---4-----4--|
A|4---------4-----4---4-----4--|4---------4-----4---4-----4--|
E|2---------2-----2---2-----2--|2---------2-----2---2-----2--|

Well you can
e|--------- --------- ---------|--------- --------- ---------|
B|-----------------------------|-----------------------------|
G|-----------------------------|-----------------------------|
D|--------------------------2--|4---------2------------------|
A|-----------------------------|--------------------4--------|
E|-----------------------------|-----------------------------|
e|--------- --------- ------0-H|2-----0-H 2-----0-H 2--------|
B|--------------------------0-H|2-----0-H-2-----0-H-2--------|
G|--------------------------1-H|2-----1-H-2-----1-H-2--------|
D|-----------------------------|-----------------------------|
A|-----------------------------|-----------------------------|
E|-----------------------------|-----------------------------|


 BmG7
e|2-----2-- ------2-- ------2--|3-----3-- ------3-- ------3--|
B|3-----3---------3---------3--|6-----6---------6---------6--|
G|4-----4---------4---------4--|4-----4---------4---------4--|
D|4-----4---------4---------4--|3-----3---------3---------3--|
A|2-----2---------2---------2--|5-----5---------5---------5--|
E|-----------------------------|3-----3---------3---------3--|

celebrate anything you want
e|--------- --------- ---------|--------- 3-------- 5-/-7----|
B|-----------------------------|-----------------------------|
G|-----------------------------|----------4---------5-/-7----|
D|-----------------------------|-----------------------------|
A|-----------------------------|-----------------------------|
E|-----------------------------|-----------------------------|


 Bm
e|--------- 3-----3-- 3-----2--|------2-- ------2-- ---------|
B|----------6-----6---6-----3--|------3---------3------------|
G|----------4-----4---4-----4--|------4---------4------------|
D|----------3-----3---3-----4--|------4---------4------------|
A|----------5-----5---5-----2--|------2---------2------------|
E|----------3-----3---3--------|-----------------------------|

Yes, you can celebrate any..
e|5-------- 3-------- ---------|2-------- --------- ---------|
B|-----------------------------|-----------------------------|
G|5---------4------------------|4----------------------------|
D|-----------------------------|-----------------------------|
A|-----------------------------|-----------------------------|
E|-----------------------------|-----------------------------|


 G7E
e|3-----3-- ------3-- ------0--|0-------- 0-----0-- ------0--|
B|6-----6---------6---------0--|0---------0-----0---------0--|
G|4-----4---------4---------1--|1---------1-----1---------1--|
D|3-----3---------3---------2--|2---------2-----2---------2--|
A|5-----5---------5---------2--|2---------2-----2---------1--|
E|3-----3---------3---------0--|0---------0-----0---------0--|

thing you want
e|--------- --------- ---------|-0------- -2------- -4-------|
B|-----------------------------|-----------------------------|
G|--------------------------0-H|1---------2---------4--------|
D|-----------------------------|-----------------------------|
A|-----------------------------|-----------------------------|
E|-----------------------------|-----------------------------|
e|0-------- 0-----0-- 0--------|
B|0---------0-----0---0--------|
G|1---------1-----1---1--------|
D|2---------2-----2---2--------|
A|2---------2-----2---2--------|
E|0---------0-----0---0--------|

Ooooh
e|-5------- -7------- -8-------|
B|-----------------------------|
G|6---------7---------8--------|
D|-----------------------------|
A|-----------------------------|
E|-----------------------------|


 AA6sus4AA6sus4
e|--------- ------5-- ---------|--------- ------5-- ---------|
B|2---------2-----2---3--------|2---------------2---3--------|
G|2---------2-----2---2--------|2---------------2---2--------|
D|2---------2-----2---4--------|2---------------2---4--------|
A|0---------0-----0---0--------|0---------------0---0--------|
E|-----------------------------|-----------------------------|

I hi hi hi
e|9-------- --------- ---------|--------- --------- ---------|
B|-----------------------------|-----------------------------|
G|9----------------------------|-----------------------------|
D|-----------------------------|-----------------------------|
A|-----------------------------|-----------------------------|
E|-----------------------------|-----------------------------|


 AA6sus4AF#m
e|--------- ------5-- ---------|--------- ------5-- ------2--|
B|2---------2-----2---3-----3--|2---------2-----2---------2--|
G|2---------2-----2---2-----2--|2---------2-----2---------2--|
D|2---------2-----2---4-----4--|2---------2-----2---------4--|
A|0---------0-----0---0-----0--|0---------0-----0---------4--|
E|-----------------------------|--------------------------2--|

hi do a
e|--------- --------- ---------|--------- --------- ---------|
B|-----------------------------|-----------------------------|
G|-----------------------------|4---------2---------4--------|
D|-----------------------------|-----------------------------|
A|-----------------------------|-----------------------------|
E|-----------------------------|-----------------------------|
e|--------- 2-------- 2-----2--|2-------- 2-----2-- 2-----2--|
B|----------2---------2-----2--|2---------2-----2---2-----2--|
G|----------2---------2-----2--|2---------2-----2---2-----2--|
D|----------4---------4-----4--|4---------4-----4---4-----4--|
A|----------4---------4-----4--|4---------4-----4---4-----4--|
E|----------2---------2-----2--|2---------2-----2---2-----2--|

road hog Well you can
e|--------- --------- ---------|--------- --------- ---------|
B|-----------------------------|-----------------------------|
G|-----------------------------|-----------------------------|
D|4----------------------------|4---------2------------------|
A|-----------------------------|--------------------4--------|
E|-----------------------------|-----------------------------|


 BmG7
e|2-----2-- 2-----2-- ---------|3-----3-- 3-----3-- 3-----3--|
B|3-----3---3-----3------------|6-----6---6-----6---6-----6--|
G|4-----4---4-----4------------|4-----4---4-----4---4-----4--|
D|4-----4---4-----4------------|3-----3---3-----3---3-----3--|
A|2-----2---2-----2------------|5-----5---5-----5---5-----5--|
E|-----------------------------|3-----3---3-----3---3-----3--|

penetrate any place you go
e|--------- --------- ---------|--------- ------3-/ 5------5/|
B|-----------------------------|-----------------------------|
G|-----------------------------|----------------4-/-5------5/|
D|-----------------------------|-----------------------------|
A|2----------------------------|-----------------------------|
E|-----------------------------|-----------------------------|


 Bm
e|--------- 3-----3-- 3-----2--|------2-- 2-----2-- 2-----2--|
B|----------6-----6---6-----3--|------3---3-----3---3-----3--|
G|----------4-----4---4-----4--|------4---4-----4---4-----4--|
D|----------3-----3---3-----4--|------4---4-----4---4-----4--|
A|----------5-----5---5-----2--|------2---2-----2---2-----2--|
E|----------3-----3---3--------|-----------------------------|

Yes you can penetrate any
e|7-------- 5-------- 3--------|--------- --------- ---------|
B|-----------------------------|-----------------------------|
G|7---------5---------4--------|-----------------------------|
D|-----------------------------|-----------------------------|
A|-----------------------------|-----------------------------|
E|-----------------------------|-----------------------------|


 G7E
e|3-----3-- ------3-- ------0--|0-----0-- 0-----0-- 0-----0--|
B|6-----6---------6---------0--|0-----0---0-----0---0-----0--|
G|4-----4---------4---------1--|1-----1---1-----1---1-----1--|
D|3-----3---------3---------2--|2-----2---2-----2---2-----2--|
A|5-----5---------5---------2--|2-----2---2-----2---2-----1--|
E|3-----3---------3---------0--|0-----0---0-----0---0-----0--|

place you go I
e|--------- --------- ---------|9---\---- 7-------- ------4--|
B|-----------------------------|-----------------------------|
G|--------------------------7/9|----\---7-----------7-\-4----|
D|-----------------------------|-----------------------------|
A|-----------------------------|-----------------------------|
E|-----------------------------|-----------------------------|
e|0-----0-- 0-----0-- 0-----0--|
B|0-----0---0-----0---0-----0--|
G|1-----1---1-----1---1-----1--|
D|2-----2---2-----2---2-----2--|
A|2-----2---2-----2---2-----2--|
E|0-----0---0-----0---0-----0--|

told you so
e|--------- 0-------- ---------|
B|-----------------------------|
G|----------1------------------|
D|-----------------------------|
A|-----------------------------|
E|-----------------------------|


 GD
e|3-------- 3-------- 3--------|2-------- 2-----2-- 2--------|
B|3---------3---------3--------|3---------3-----3---3--------|
G|0---------0---------0--------|2---------2-----2---2--------|
D|0---------0---------0--------|0---------0-----0---0--------|
A|2---------2---------2--------|-----------------------------|
E|3---------3---------3--------|-----------------------------|

All I want is
e|--------- --------- ---------|--------- --------- ---------|
B|-----------------------------|-----------------------------|
G|-----------------------------|--------------------7--------|
D|-----------------------------|4---------7------------------|
A|--------------------5--------|-----------------------------|
E|3---------7------------------|-----------------------------|


 A5
e|--------- --------- ---------|--------- --------- ---------|
B|-----------------------------|-----------------------------|
G|2-----2---2------------------|------2----------------------|
D|2-----2---2---------------2--|3-H-4-----4-----2------------|
A|0-----0---0-----3---4--------|-------------------3-H-4--0--|
E|-----------------------------|-----------------------------|

 A5
e|--------- --------- ---------|--------- --------- ---------|
B|-----------------------------|-----------------------------|
G|-----------------------------|-----------------------------|
D|7-----7---7------------------|------7----------------------|
A|7-----7---7---------------7-H|8-H-9-----9-----7---------0--|
E|5-----5---5-----8-H-9--------|--------------------8-H-9----|

you

 GD
e|3-----3-- 3-----3-- 3--------|2-----2-- 2-----2-- 2-----0--|
B|3-----3---3-----3---3--------|3-----3---3-----3---3-----0--|
G|0-----0---0-----0---0--------|2-----2---2-----2---2-----0--|
D|0-----0---0-----0---0--------|0-----0---0-----0---0--------|
A|2-----2---2-----2---2--------|-----------------------------|
E|3-----3---3-----3---3--------|-----------------------------|

Ev'rything has got to be just like you want it
e|--------- --------- ---------|--------- --------- ---------|
B|-----------------------------|-----------------------------|
G|-----------------------------|--------------------7--------|
D|--------------------5--------|----------7-----9---------9--|
A|----------5-----7---------7--|5--/--9----------------------|
E|3--/--7----------------------|-----------------------------|


(.
 A
e|0-------- --------- ---------|--------- --------- ---------|
B|2----------------------------|-----------------------------|
G|2----------------------------|-----------------------------|
D|2----------------------------|-----------------------------|
A|0----------------------------|-----------------------------|
E|-----------------------------|-----------------------------|

to
e|--------- --------- ---------|--------- --------- ---------|
B|-----------------------------|-----------------------------|
G|-----------------------------|-----------------------------|
D|7----------------------------|-----------------------------|
A|7----------------------------|-----------------------------|
E|5----------------------------|-----------------------------|


x x x x x x

e|--------- --------- --------- --|--------- --------- ---------|
B|--------------------------------|-----------------------------|
G|--------------------------------|-----------------------------|
D|--------------------------------|-----------------------------|
A|--------------------------------|-----------------------------|
E|--------------------------------|-----------------------------|

Be..............cause

 AA6sus4AA6sus4
e|--------- ------5-- ---------|--------- ------5-- ---------|
B|2---------2-----2---3--------|2---------2-----2---2-H-3----|
G|2---------2-----2---2--------|2---------2-----2---2--------|
D|2---------2-----2---4--------|2---------2-----2---2-H-4----|
A|0---------0-----0---0--------|0---------0-----0---0--------|
E|-----------------------------|-----------------------------|

I hi hi hi

 AA6sus4A
e|--------- ------5-- ---------|--------- ------5-- ------5--|
B|2---------2-----2---3--------|2---------2-----2---2-----2--|
G|2---------2-----2---2--------|2---------2-----2---2-----2--|
D|2---------2-----2---4--------|2---------2-----2---2-----2--|
A|0---------0-----0---0--------|0---------0-----0---0-----0--|
E|-----------------------------|-----------------------------|

hi pick a moon
e|--------- --------- ---------|--------- --------- ---------|
B|2--H--3---------2-H-3--------|2----------------------------|
G|2---------------2------------|2----------------------------|
D|2--H--4---------2-H-4--------|2----------------------------|
A|0---------------0------------|0----------------------------|
E|-----------------------------|-----------------------------|


 F#m
e|2-----2-- 2-----2-- 2-----2--|2-------- 2-----2-- 2-----2--|
B|2-----2---2-----2---2-----2--|2---------2-----2---2-----2--|
G|2-----2---2-----2---2-----2--|2---------2-----2---2-----2--|
D|4-----4---4-----4---4-----4--|4---------4-----4---4-----4--|
A|4-----4---4-----4---4-----4--|4---------4-----4---4-----4--|
E|2-----2---2-----2---2-----2--|2---------2-----2---2-----2--|

dog Well you can
e|--------- --------- ---------|--------- --------- ---------|
B|-----------------------------|-----------------------------|
G|-----------------------------|-----------------------------|
D|----------------------------2H4---------2------------------|
A|-----------------------------|--------------------4--------|
E|-----------------------------|-----------------------------|
e|--------- --------- ------0-H|2-----0-H 2-----0-H 2--------|
B|--------------------------0-H|2-----0-H-2-----0-H-2--------|
G|--------------------------1-H|2-----1-H-2-----1-H-2--------|
D|-----------------------------|-----------------------------|
A|-----------------------------|-----------------------------|
E|-----------------------------|-----------------------------|


 BmG7
e|2-----2-- ------2-- ------2--|3-----3-- ------3-- ------3--|
B|3-----3---------3---------3--|6-----6---------6---------6--|
G|4-----4---------4---------4--|4-----4---------4---------4--|
D|4-----4---------4---------4--|3-----3---------3---------3--|
A|2-----2---------2---------2--|5-----5---------5---------5--|
E|-----------------------------|3-----3---------3---------3--|

radiate ev'rything you are
e|--------- --------- ---------|--------- 3-------- 5-------5/
B|-----------------------------|-----------------------------|
G|-----------------------------|----------4---------5-------5/
D|-----------------------------|-----------------------------|
A|2----------------------------|-----------------------------|
E|-----------------------------|-----------------------------|


 Bm
e|--------- 3-----3-- 3-----2--|2-----2-- 2-----2-- ---------|
B|----------6-----6---6-----3--|3-----3---3-----3------------|
G|----------4-----4---4-----4--|4-----4---4-----4------------|
D|----------3-----3---3-----4--|4-----4---4-----4------------|
A|----------5-----5---5-----2--|2-----2---2-----2------------|
E|----------3-----3---3--------|-----------------------------|

Yes, You can radiate ev'ry...
e|7-------- 5-------- 3--------|2-------- --------- ---------|
B|-----------------------------|-----------------------------|
G|7---------5---------4--------|4----------------------------|
D|-----------------------------|-----------------------------|
A|-----------------------------|-----------------------------|
E|-----------------------------|-----------------------------|


 G7E
e|3-----3-- ------3-- ------0--|0-----0-- 0-----0-- 0-----0--|
B|6-----6---------6---------0--|0-----0---0-----0---0-----0--|
G|4-----4---------4---------1--|1-----1---1-----1---1-----1--|
D|3-----3---------3---------2--|2-----2---2-----2---2-----2--|
A|5-----5---------5---------2--|2-----2---2-----2---2-----1--|
E|3-----3---------3---------0--|0-----0---0-----0---0-----0--|

thing you are
e|--------- --------- ---------|-0------- -2------- -4-------|
B|-----------------------------|-----------------------------|
G|--------------------------0-H|1---------2---------4--------|
D|-----------------------------|-----------------------------|
A|-----------------------------|-----------------------------|
E|-----------------------------|-----------------------------|
e|0-----0-- ------0-- 0--------|
B|0-----0---------0---0--------|
G|1-----1---------1---1--------|
D|2-----2---------2---2--------|
A|2-----2---------2---2--------|
E|0-----0---------0---0--------|

Ooooh Now

e|-5------- -7------- -8-------|
B|-----------------------------|
G|6---------7---------8--------|
D|-----------------------------|
A|-----------------------------|
E|-----------------------------|      


 AA6sus4AA6sus4
e|5-------- 5-----5-- 5--------|5-------- 5-----5-- 5--------|
B|2---------2-----2---3--------|2---------2-----2---2-H-3----|
G|2---------2-----2---2--------|2---------2-----2---2--------|


A A5 A6sus4 Bm D E F#m G G7
variations - click chord images
Transpose chords:
Tuning:
Cool service:
View: Size:
A  A  A
Rating:
Layout:
  • Currently 1/5 Stars.
  • 1
  • 2
  • 3
  • 4
  • 5
 
Accuracy:
  • Currently 1/5 Stars.
  • 1
  • 2
  • 3
  • 4
  • 5
 
click stars to rate
Chordie recommends:
Learn to play this song & others via video guitar lessons at JamPlay.com
Songbook:
Login to add this song to your songbook
Support the artist
Preview/buy this song
MSN Music
Why this non-profit ad?

 
login to add comments/video/corrections