Chordie logo

Emily   From First To Last



| Ultimate Guitar Tabs Archive - your #1 source for tabs!               |
| http://www.ultimate-guitar.com/                                       |
|                                                                       |
| Over 150,000 of guitar, guitar pro and bass tabs! Also lessons, news, |
| columns and guitar forums!                                            |


Artist: From First To Last
Song: Emily


----------------------------------------------------------------------------
 		 EMILY - From First To Last
----------------------------------------------------------------------------
Tabbed by: SavesTheDon
Email: fsf_snowbird@yahoo.com

Ok, i know there are two guitars in this song, but i have only figured out the one.
i think there may be something wrong with the chorus, so if you have some 
corrections/guitar 2's parts, just email me.


Tuning: Standard (E A D G B e)
 INTRO (Guitar 1)                            |REPEAT 3x|
e|-------------------------|-----------------------------------------------|
B|------------------0------|---------------0---------------------0---------|
G|-------------------------|-----------------------------------------------|
D|------------5--------5---|---------5--------5-------------4------4-------|
A|------3--3-----3---------|--7--7------7------------5--5-----5------------|
E|-------------------------|-----------------------------------------------|
                              HARMONICS ONLY 1st TIME
e|----------------------|--------------------------------------------------|
B|------------------0---|----------------------------------------------|
G|----------------------|----------------------------------------------|
D|-----------5--------5-|--------------------------------------------------|
A|----3--3-------3------|--------------------------------------------------|
E|----------------------|--------------------------------------------------|
  VERSE (REPEAT 4x) (2)-->Shows number of measures per chord
e|-------------------------------------------------------------------------|
B|-------------------------------------------------------------------------|
G|--------------------------9-----------7----------------------------------|
D|---5----------------------9-----------7----------------------------------|
A|---5-(2)------------------7-----------5----------------------------------|
E|---3---------------------------------------------------------------------|
  Smile and her laughter...only thing...i've been waiting for

  CHORUS (REPEAT 4x)             INTRO (1x) Then
e|----3------------------------|-------------------------------------------|
B|----3------------------------|-------------0------------0----------------|
G|----4------------9-------7---|-------------------------------------------|
D|----5-(2)--------9-------7---|--------5------5------4-----4--------------|
A|----5------------7-------5---|--7--7-----7------5-5---5------------------|
E|----3------------------------|-------------------------------------------|
  
VERSE (4x)
CHORUS (4x)

 END WITH
e|-------------------------------------------------------------------------|
B|---------------0-----------------------------------------------------|
G|-------------------------------------------------------------------------|
D|----------5------5-------------------------------------------------------|
A|----3--3-----3-----------------------------------------------------------|
E|-------------------------------------------------------------------------|

END

+--------------------------------------------------------------------------+
| This file is the author's own work and represents their interpretation   |
| of the song. You may only use this file for private study, scholarship,  |

| or research.                                                             |
+--------------------------------------------------------------------------+



Important: The song above is NOT stored on the Chordie server. The original song is hosted at www.ultimate-guitar.com. Chordie works as a search engine and provides on-the-fly formatting. Chordie does not index songs against artists/composers will. To remove this song please click here.

This song is displayed as text-only. Transposing and tuning is only available for chordpro-songs.

Login - add to songbook

Rating click stars to rate

Layout
Accuracy

SHARE PAGE  

You need to log in to post comments