Thunderbird

Zz Top


| Ultimate Guitar Tabs Archive - your #1 source for tabs! | | http://www.ultimate-guitar.com/ | | | | Over 200,000 guitar, guitar pro and bass tabs! Also lessons, news, | | columns and guitar forums! |
Artist: Zz Top Song: Thunderbird
Standard Tuning (Intro) |-----|------------------|-----------------|-----------------| |-----|------------------|-----------------|-----------------| |---3-|-(3)--3-3-3-3-3-3-|-3-3-3-3-3-3-3-3-|-3-3-3-3-3-3-3-3-| |-----|------------------|-----------------|-----------------|
|--------------|----------------|--------------| |--------------|-3--3-3-3-3-3-3-|-3-3----------| |-3------------|----------------|-----0--1--2--| |---0----1--3--|----------------|--------------|
|----------------|----------------|----------------| |----------------|--------------5-|-5-5-5-5-5----0-| |-3--3-3-3-3-3-3-|-3-3-3-3-3--5---|----------------| |----------------|----------------|----------------|
|----------------|---------------|-------------|| |-3--3-3-3-------|---------------|-------------|| |----------0-1-3-|-(3)-----------|----0--1--2--|| |----------------|------0--1--2--|-3-----------||
|----------------|-----------------|-----------------| |----------------|-----------------|-----------------| |-3--3-3-3-3-3-3-|-3-3-3-3-3-3-3-3-|-3-3-3-3-3-3-3-3-| |----------------|-----------------|-----------------|
|-----------------|----------------|-------------| |-----------------|-3--3-3-3-3-3-3-|-3-----------| |-3-3-3-3-3-3-3-3-|----------------|----0--1--2--| |-----------------|----------------|-------------|
|----------------|-----------------|-------------------| |----------------|-----------------|-5-----5-(5)-------| |-3--3-3-3-3-3-3-|-3-3-3-3-3-3-5-5-|-------------------| |----------------|-----------------|---3-3-------3-3-3-|
|------------------|--------------|-------------|| |-------3-(3)------|--------------|-------------|| |--------------0-1-|-3------------|----0--1--2--|| |-1-1-1------------|---0----1--2--|-3-----------||
(Verse) |----------------|-----------------|----------------| |----------------|-----------------|----------------| |-3--3-3-3-3-3-3-|-3-3-3-3-3-3-3-3-|-3-3-3-3-3-3----| |----------------|-----------------|-------------1--|
|-------------|----------------|-------------| |-------------|-3--3-3-3-3-3-3-|-3-----------| |-------------|----------------|----0--1--2--| |-0--1--2--3--|----------------|-------------|
|-----------------|-----------------|-----------------| |-----------------|-----------------|-5-5-5-5-5-5-5-0-| |-3-3-3-3-3-3-3-3-|-3-3-3-3-3-3-3-3-|-----------------| |-----------------|-----------------|-----------------|
|-----------------|---------------|--------------|| |-3-3-3-3-3-3-----|---------------|--------------|| |-------------0-1-|-3-3-----------|-3------------|| |-----------------|-----0-0-1--2--|----0--1--2-3-||
(Chorus) |----------------|-----------------|-----------------| |----------------|-----------------|-----------------| |-3--3-3-3-3-3-3-|-3-3-3-3-3-3-3-3-|-3-3-3-3-3-3-3-3-| |----------------|-----------------|-----------------|
|-----------------|-----------------|-----------------| |-----------------|-----------------|-----------------| |-3-3-3-3-3-3-3-3-|-----------------|-----0-0-1-1-2-2-| |-----------------|-1-1-1-1-1-1-1-1-|-1-1-------------|
|-----------------|-----------------|-------------------| |-----------------|-----------------|-5-----5-(5)-------| |-3-3-3-3-3-3-3-3-|-3-3-3-3-3-3-5-5-|-------------------| |-----------------|-----------------|---3-3-------3-3-3-|
|------------------|--------------|-------------|| |-------3-(3)------|--------------|-------------|| |--------------0-1-|-3------------|----0--1--2--|| |-1-1-1------------|---0----1--2--|-3-----------||
(During solo) |----------------|-----------------|-----------------| |----------------|-----------------|-----------------| |-3--3-3-3-3-3-3-|-3-3-3-3-3-3-3-3-|-3-3-3-3-3-3-3-3-| |----------------|-----------------|-----------------|
|---------------|----------------|----------------| |---------------|-3--3-3-3-3-3-3-|---x------------| |-3-------------|----------------|-----0--1-1-2-2-| |---0----1--2-3-|----------------|----------------|
|----------------|-----------------|----------------| |----------------|---------------5-|-(5)--5--5--4-0-| |-3--3-3-3-3-3-3-|-3-3-3-3-3-3-5---|----------------| |----------------|-----------------|----------------|
|--------------|---------------|-------------| |-3--3--3------|---------------|-------------| |----------0-3-|-(3)-----------|----0--1--3--| |--------------|------0--1--2--|-3-----------|
|--------------|-----------------|-----------------| |--------------|-----------------|-----------------| |----3--3--3-3-|-3-3-3-3-3-3-3-3-|-3-3-3-3-3-3-3-3-| |-1------------|-----------------|-----------------|
|-------------|----------------|-------------| |-------------|----------------|-------------| |-3-----------|----------------|----0--1--2--| |----0--1--3--|-1--1-1-1-1-1-1-|-1-----------|
|----------------|-----------------|------------------|
|----------------|---------------5-|-(5)----------3---| |-3--3-3-3-3-3-3-|-3-3-3-3-3-3-5---|----------------3-| |----------------|-----------------|------3-3-3-3-----|
|--------------|-------------|-------------| |-3--3--3------|-------------|-------------| |----------0-1-|-3-----------|----0--1--2--| |--------------|----0--1--2--|-3-----------|
|-----------------|-----------------|-----------------| |-----------------|-----------------|-----------------| |-3-3-3-3-3-3-3-3-|-3-3-3-3-3-3-3-3-|-3-3-3-3-3-3-3-3-| |-----------------|-----------------|-----------------|
|-----------------|---------------|-------------| |---------0-0-1-2-|-3--3-3-3-3-3--|-------------| |-3-3-3-3---------|---------------|-0--0--1--2--| |-----------------|---------------|-------------|
|-----------------|-----------------|-----------------| |-----------------|-----------------|-5-5-5-5-5-5-5-0-| |-3-3-3-3-3-3-3-3-|-3-3-3-3-3-3-5-5-|-----------------| |-----------------|-----------------|-----------------|
|-----------------|--------------|----------|| |-3-3-3-3-3-3-----|--------------|----------|| |-------------0-1-|-3------------|----0-----|| |-----------------|---0----1--2--|-3--------||
(Verse) |----------------|-----------------|-----------------| |----------------|-----------------|-----------------| |-3--3-3-3-3-3-3-|-3-3-3-3-3-3-3-3-|-3-3-3-3-3-3-3-3-| |----------------|-----------------|-----------------|
|-----------------|----------------|--------------| |-----------------|-3--3-3-3-3-3-3-|-3------------| |-3-3-3-3-3-3-3-3-|----------------|---0----1--2--| |-----------------|----------------|--------------|
|-----------------|-----------------|-------------------| |-----------------|-----------------|-5-----5-(5)-------| |-3-3-3-3-3-3-3-3-|-3-3-3-3-3-3-5-5-|-------------------| |-----------------|-----------------|---3-3-------3-3-3-|
|------------------|--------------|-------------|| |-------3-(3)------|--------------|-------------|| |--------------0-1-|-3------------|----0--1--2--|| |-1-1-1------------|---0----1--2--|-3-----------||
(Chorus) |----------------|-----------------|-----------------| |----------------|-----------------|-----------------| |-3--3-3-3-3-3-3-|-3-3-3-3-3-3-3-3-|-3-3-3-3-3-3-3-3-| |----------------|-----------------|-----------------|
|-----------------|----------------|-------------| |-----------------|-3--3-3-3-3-3-3-|-3-----------| |-3-3-3-3-3-3-3-3-|----------------|----0--1--2--| |-----------------|----------------|-------------|
|----------------|-----------------|-------------------| |----------------|-----------------|-5-----5-(5)-------| |-3--3-3-3-3-3-3-|-3-3-3-3-3-3-5-5-|-------------------| |----------------|-----------------|---3-3-------3-3-3-|
|------------------|--------------|------------------|| |-------3-(3)------|--------------|------------------|| |--------------0-1-|-3------------|------0-(0)-1-1---|| |-1-1-1------------|---0----1--2--|-3--3-----------3-||
(Outro) |-------------|----------------|-------------| |-------------|----------------|-------------| |-3--3--3--2--|-3-----4-(4)----|-3--3--3--2--| |-------------|----------------|-------------|
|-------------|-------------|----------------| |-------------|-3--3--3--0--|-3-0------------| |---3-4-5-6-7-|-------------|--------0-0-1-1-| |-------------|-------------|-----1----------|
|--------------|--------------|-------------| |--------------|--------2--1--|-0--2--3--4--| |-3-3-3--3--3--|-3-0----------|-------------| |--------------|--------------|-------------|
|-------------|----3--2-----|----1--0-----| |-------------|----------1--|-0-----------| |-0--0--1--2--|-3-----------|----------4--| |-------------|-------------|-------------|
|-------------|----------------|-------------| |-------------|----------------|-------------| |-3--3--3--2--|-3-----4-(4)----|-3--3--3--2--| |-------------|----------------|-------------|
|-------------|--------------|--------------| |-------------|-----3--3--0--|---x----------| |---3-4-5-6-7-|-3-0----------|--------0--1--| |-------------|--------------|-----1--------|
|-------------|--------------|-------------| |-------------|------0-2--1--|-0--2--3--4--| |-3--3--2--3--|-0-0----------|-------------| |-------------|--------------|-------------|
|-------------|----------|------------: |-------------|----------|------------: |-0--0--2-----|----------|-x-----3----: |-------------|----------|------------:
|-----------------:------------:-------------*| |-----------------:------------:-------------*| |-(3)-0-3-0-3--3--:-(3)--------:-x\----------*| |-----------------:------------:-------------*|
Thanks, please rate it after you learn it.
END
+--------------------------------------------------------------------------+ | This file is the author's own work and represents their interpretation | | of the song. You may only use this file for private study, scholarship, | | or research. | +--------------------------------------------------------------------------+
Ultimate-Guitar.Com © 2005

variations - click chord images
Transpose chords:
Tuning:
Cool service:
View: Size:
A  A  A
Rating:
Layout:
  • Currently 0/5 Stars.
  • 1
  • 2
  • 3
  • 4
  • 5
 
Accuracy:
  • Currently 0/5 Stars.
  • 1
  • 2
  • 3
  • 4
  • 5
 
click stars to rate
Chordie recommends:
Learn to play this song & others via video guitar lessons at JamPlay.com
Songbook:
Login to add this song to your songbook
Support the artist
Preview/buy this song
MSN Music
Why this non-profit ad?

 
login to add comments/video/corrections