Chordie logo


   Unknown


Without You Im Nothing
Placebo

C  -0-0-0-0-0-0--0-0-0--0--0--0--0--0--0--0--0--0---0-0-0---|
C  -0-0-0-0-0-0--0-0-0--0--0--0--0--0--0--0--0--0---0-0-0---|
G# -2-2-2-2-2-2--0-0-0--9--9--9--9--9--9--9--9--9---0-0-0---|
D# -3-3-3-3-3-3--0-0-0--10-10-10-10-10-10-10-10-10--0-0-0---|
A# -0-0-0-0-0-0--0-0-0--0--0--0--0--0--0--0--0--0---0-0-0---|
F  ---------------------------------------------------------|


C  -0-0-0-0-0-0--0-0-0---0-0-0--5-5--------------------|
C  -0-0-0-0-0-0--0-0-0---0-0-0--5-5-0------------------|
G# -2-2-2-2-2-2--0-0-0---2-2-2--5-5-0------------------|
D# -3-3-3-3-3-3--0-0-0---2-2-2--0-0-0------------------|
A# -0-0-0-0-0-0--0-0-0---0-0-0-------------------------|
F  ----------------------------------------------------|

Tick, tock...

C  ---------------------------------------------------------|
C  -------0--0-1-0--------------------0--0-1----------------|
G# -------2--2------------------------2--2------------------|
D# -------2--2------2-2-2-2-2---------2--2-----2-2-2-2-2----|
A# ----0----------------------0---0-----------------------0-| (X 2)
F  ---------------------------------------------------------|

C  ---------------------------------------------------------|
C  -----0-1-1---0-1------0-1-1---0-1---------0-1-1---0-1----|
G# -----2-----2----------2-----2-------------2-----2--------|
D# -----2----------------2------------2-2----2--------------|
A# ----------------------------------------0----------------|
F  -1----------------1--------------------------------------|

I'm unclean, a libertine...

C  -----------------------------------------------|
C  --6-6-6-6-6-6-6-6-6-6-6-6-6-6-6-6--------------|
G# --7-7-7-7-7-7-7-7-7-7-7-7-7-7-7-7--------------|
D# --0-0-0-0-0-0-0-0-0-0-0-0-0-0-0-0--------------|
A# -----------------------------------------------|
F  -----------------------------------------------|
Repeat
C  -----------------------------------------------| (X 2)
C  --1-1-1-1-1-1-1-1-1-1-1-1-1-1-1-1--------------|
G# --2-2-2-2-2-2-2-2-2-2-2-2-2-2-2-2--------------|
D# --2-2-2-2-2-2-2-2-2-2-2-2-2-2-2-2--------------|
A# --0-0-0-0-0-0-0-0-0-0-0-0-0-0-0-0--------------|
F  -----------------------------------------------|


I______take the plan...

C  --10-10-10-10-10-10-10-10-10-10-10-10-10-10-10-14-14-14-14-|
C  --10-10-10-10-10-10-10-10-10-10-10-10-10-10-10-14-14-14-14-|
G# -----------------------------------------------------------|
D# -----------------------------------------------------------|
A# -----------------------------------------------------------|
F  -----------------------------------------------------------|

C  -14-14-14-14-14-14-14-14-15-14-16-16-15-14-12-12-------0----|
C  -14-14-14-14-14-14-14-14-15-14-16-16-15-14-12-12-------0----|
C  -------------------------------------------------------1----|
G# -------------------------------------------------------2----|
D# -------------------------------------------------------2----|
A# --------------------------------------------------0-0-------| Repeat (X 2)
F  ------------------------------------------------------------|


C  -------------------------------------------------------------|
C  -8----------------8-------------------8----------------------|
G# ---10-10-10-10------10--10--10--10------10-10-10-10-10-10----|
D# -------------------------------------------------------------|
A# -------------------------------------------------------------|
F  -------------------------------------------------------------|


C  ---------------------------------------------------------------|
C  -8----------8-------------8------------------------------------|
G# ---9-9-9-9----9--9--9--9-----9-9-9-9---------------------------|
D# ---------------------------------------------------------------|
A# ---------------------------------------------------------------| Repeat


Important: The song above is NOT stored on the Chordie server. The original song is hosted at www.ultimate-guitar.com. Chordie works as a search engine and provides on-the-fly formatting. Chordie does not index songs against artists/composers will. To remove this song please click here.

This song is displayed as text-only. Transposing and tuning is only available for chordpro-songs.

Login - add to songbook

Rating click stars to rate

Layout
Accuracy

Jango Player

SHARE PAGE  




You need to log in to post comments