Youre The First The Last My Everything

Barry White


| Ultimate Guitar Tabs Archive - your #1 source for tabs! | | http://www.ultimate-guitar.com/ | | | | Over 150,000 of guitar, guitar pro and bass tabs! Also lessons, news, | | columns and guitar forums! |
Artist: Barry White Song: Youre The First The Last My Everything
*************************************************************** *** BARRY WHITE - YOU'RE THE FIRST, THE LAST, MY EVERYTHING *** ***************************************************************
Normal tuning - E, A, D, G
---------------------------------------------------------------
*INTRO*
|---------------------------------|----------------------------------------| |---------------------------------|----------------------------------------| |-3--3---3---3---3--3--3---3---3--|-3--3--3---3---3---3--3--3-3------------| |---------------------------------|-----------------------------6-6-5-5-3--| *VERSE 1* |----------------------------------------|--------------------------------------| |-3--3--------------3---3----------------|--------------------------------------| |-------5---3---5----------5---3---3-(4)-|-5--5--3-------3---5---5---3---5---3--| |----------------------------------------|-----------5--------------------------|
|--------------------------------------|-3--3--------------3---3------3---2--2-| |-3--3--------------3---3--------------|-------5---3---5----------5------------| |-------5---3---5----------5---3--3--5-|---------------------------------------| |--------------------------------------|---------------------------------------|
|------------------------------5--5-----5-|-----------------------------------------| |-5--5--3-------3----------5---------5----|-7--7---------------------7--------------| |-----------5-------3---3-----------------|-------7-------7---5---5------5---4--(5)-| |-----------------------------------------|-----------5-----------------------------|
|---------------------------------------|-3--3------3---------------------| |-5--5--3-------3---5---5--3-------3--5-|-------3-------3-----------------| |-----------5------------------5--------|-------------------1--3----------| |---------------------------------------|---------------------------------|
*PRE-CHORUS 1* |-------------------------------------|--------------------------------------| |-3--3--------------3---3-------------|--------------------------------------| |-------5---3---5----------5---3------|-5--5--3-------3---5---5---3---5---3--| |----------------------------------5--|-----------5--------------------------|
|-----------------------------------------|-3--3--------------3---3---------------| |-3--3--------------3---3-----------------|-------5---3---5----------5---3---3--5-| |-------5---3---5----------5---3--3--4--5-|---------------------------------------| |-----------------------------------------|---------------------------------------|
*CHORUS 1*
|-3--3--------------3---3---------------|---------------------------------------| |-------5---3---5----------3----------2-|-3--3----------------------------------| |------------------------------5---5----|-------3-------3---5---5----------5--7-| |---------------------------------------|-----------5--------------5---5--------|
|-----------------------------------|---------5---------5-------5-------5-------5-| |-5--5------------------------------|-3--3--------3--3-------3-------3-------3----| |-------5----------3--3----3--3---5-|---------------------------------------------| |-----------3--5--------------------|---------------------------------------------|
|---------5---------5-------5-----------5-------| |-3--3--------3--3-------3-----3-----3-----3----| |---------------------------------3-----------3-| |-----------------------------------------------|
*VERSE 2* |-----------------------------------------|--------------------------------------| |-3--3--------------3---3-----------------|--------------------------------------| |-------5---3---5----------5---------3--4-|-5--5--3-------3---5---5---3---5---3--| |------------------------------3--5-------|-----------5--------------------------|
|--------------------------------------|-3--3--------------3---3------3--3--2----| |-3--3--------------3---3--------------|-------5---3---5----------5------------3-| |-------5---3---5----------5---3--3--5-|-----------------------------------------| |--------------------------------------|-----------------------------------------|
|-------------------------------5------5-|---------------------------------------| |-5--5--3-------------------5-------5----|-7--7----------------------------------| |-----------5-----5--3---3---------------|-------7------2--3--5--5------3---4--5-| |--------------5-------------------------|-----------5--------------5------------|
|----------------------------------------|-3--3------3-------3-------------| |-5--5--3------3--4---5--5--3-------3--5-|-------3-------3-----------------|
|-----------5-------------------5--------|----------------------3----------| |----------------------------------------|---------------------------------|
*PRE-CHORUS 2* |-------------------------------------|--------------------------------------| |-3--3--------------3---3-------------|--------------------------------------| |-------5---3---5----------5---3------|-5--5--3-------3---5---5---3---5---3--| |----------------------------------5--|-----------5--------------------------|
|-----------------------------------------|-3--3--------------3---3------------3----| |-3--3--------------3---3-----------------|-------5---3---5----------5---3--5-----5-| |-------5---3---5----------5------3--4--5-|-----------------------------------------| |------------------------------5----------|-----------------------------------------|
*CHORUS 2*
|-3--3--------------3---3---------------|--------------------------------------| |-------5---3---5----------3----------2-|-3--3---------------------------------| |------------------------------5---5----|-------5------3---5---5----------5--7-| |---------------------------------------|-----------5-------------5---5--------|
|----------------------------------------|---------5---------5-------5-------5-------5-| |-5--5-----------------------------------|-3--3--------3--3-------3-------3-------3----| |-------5----------3--3--3----3--3---(3)-|---------------------------------------------| |-----------3--5-------------------------|---------------------------------------------|
|---------5---------5-------5-----------5-------| |-3--3--------3--3-------3-----3-----3-----3----| |---------------------------------3-----------3-| |-----------------------------------------------|
*INTERLUDE*
|---------------------------------------|---------------------------------------| |-3--3--------------3---3---------------|-3--3--------------3---3---------------| |-------5---3---5----------5---3---3--5-|-------5---3---5----------5---3---3--5-| |---------------------------------------|---------------------------------------|
|-----------------------------------------|-3--3--------------3---3---------------| |-3--3--------------3---3-----------------|-------5---3---5----------5---3---3--5-| |-------5---3---5----------5---3--3--3--5-|---------------------------------------| |-----------------------------------------|---------------------------------------|
|-3--3--------------3---3---------------|-------------------------------------| |-------5---3---5----------3----------2-|-3--3--------------------------------| |------------------------------5---5----|-------3------3--5---5------5---7--5-| |---------------------------------------|-----------5------------5------------|
|-------------------------------------| |-5--5--------------------------------| |-------5----------3--3------3---3--5-| |-----------5--7---------3------------|
*PRE-CHORUS 3*
|----------------------------------------|--------------------------------------| |-3--3--------------3---3----------------|--------------------------------------| |-------5---3---5----------5--------3--4-|-5--5--3-------3---5---5---3---5---3--| |------------------------------(5)-------|-----------5--------------------------|
|-----------------------------------------|-3--3--------------3---3---------------| |-3--3--------------3---3-----------------|-------5---3---5----------5---3---3--5-| |-------5---3---5----------5---3--4--5--5-|---------------------------------------| |-----------------------------------------|---------------------------------------|
*CHORUS 3 (fades out)*
|-3--3--------------3---3---------------|--------------------------------------| |-------5---3---5----------3----------2-|-3--3---------------------------------| |------------------------------5---5----|-------5------3---5---5----------5--7-| |---------------------------------------|-----------5-------------5---5--------|
|-------------------------------5---------|-------------12-13-14---------------------| |-5--5------------------------------------|------------------------------------------| |-------5---5------(3)--3--3-------3--(3)-|-------3-------------------------------3--| |--------------3--------------------------|-1--1-------------------------X--1--1-----|
|-------------12-13-14---------------------| |------------------------------------------| (repeat) |-------3----------------------3--------3--| |-1--1----------------------1-----1--1-----|
[Transcribed by Juha Solla]
Questions? Feedback? Feel free to contact me: tempt@iobox.com
END
+--------------------------------------------------------------------------+ | This file is the author's own work and represents their interpretation | | of the song. You may only use this file for private study, scholarship, | | or research. | +--------------------------------------------------------------------------+
Ultimate-Guitar.Com © 2005

variations - click chord images
Transpose chords:
Tuning:
Cool service:
View: Size:
A  A  A
Rating:
Layout:
  • Currently 0/5 Stars.
  • 1
  • 2
  • 3
  • 4
  • 5
 
Accuracy:
  • Currently 5/5 Stars.
  • 1
  • 2
  • 3
  • 4
  • 5
 
click stars to rate
Chordie recommends:
Learn to play this song & others via video guitar lessons at JamPlay.com
Songbook:
Login to add this song to your songbook
Support the artist
Preview/buy this song
MSN Music
Why this non-profit ad?

 
login to add comments/video/corrections