""; ?> Whatcha Know About by Donavon Frankenreiter - guitar chords, guitar tabs and lyrics - chordie

Whatcha Know About

Donavon Frankenreiter

-----------------------------------------------------------------------------

-----------------------------------------------------------------------------
e|------------------------------3-----|
B|-----3/5---3------------------3-----|
G|---------------4p2---0--------0-----|
D|------------------------------2-----|
A|--------------------------3---3-----|
E|------------------------------------|

Gadd9 (listen to the song for strum pattern)
e|------------------------------3-----| (palm mute after strumming Gadd9)
B|-----3/5---3------------------3-----|
G|---------------4p2---0--------0-----|
D|------------------------------0-----|
A|------------------------------2-----|
E|--------------------------3---3-----|

ya' said our love would be...

 Cadd9
e|------------------------------3-----|
B|-----3/5---3------------------3-----|
G|---------------4p2---0--------0-----|
D|------------------------------2-----|
A|--------------------------3---3-----|
E|------------------------------------|

ya' said you were my girlfriend...

Gadd9 (palm mute after strumming Gadd9)
e|---------------------------------3-----|
B|-----3/5---3---------------------3-----|
G|---------------4p2---0-----------0-----|
D|---------------------------------0-----|
A|---------------------------------2-----|
E|-----------------------------3---3-----|

some girl you turned out to be...

 Cadd9
e|------------------------------3-----|
B|-----3/5---3------------------3-----|
G|---------------4p2---0--------0-----|
D|------------------------------2-----|
A|--------------------------3---3-----|
E|------------------------------------|

i bet'chu know about leavin'...

Gadd9 (DONT PALM MUTE HERE-STRUM ON THROUGH)
e|---------------------------------3-----|
B|-----3/5---3---------------------3-----|
G|---------------4p2---0-----------0-----|
D|---------------------------------0-----|
A|---------------------------------2-----|
E|-----------------------------3---3-----|

lovin' and leavin' me

 Cadd9
e|------------------------------3-----|
B|-----3/5---3------------------3-----|
G|---------------4p2---0--------0-----|
D|------------------------------2-----|
A|--------------------------3---3-----|
E|------------------------------------|

ya' left me for no reason...

Gadd9 (DONT MUTE-STRUM THROUGH TO CHORUS)
e|------------------------------3-----|
B|-----3/5---3------------------3-----|
G|---------------4p2---0--------0-----|
D|------------------------------0-----|
A|------------------------------2-----|
E|--------------------------3---3-----|

ya' left me to believe...

CHORUS: Em(X22XXX) - F#(244322) - G(355433)
 EmF#G
sometimes your life can crumble...
 EmF#G
sometimes your sole might make you stumble...
 EmF#G
but you cant drown in your sorrow...
 EmF#G
'cause ya' might be found, ya' might be found tomorrow...

VERSE 2:
 Cadd9
e|------------------------------3-----|
B|-----3/5---3------------------3-----|
G|---------------4p2---0--------0-----|
D|------------------------------2-----|
A|--------------------------3---3-----|
E|------------------------------------|

what'chu know about livin'...

Gadd9 (palm mute like before-after strum)
e|-------------------------------------3-----|
B|------------3/5---3------------------3-----|
G|----------------------4p2---0--------0-----|
D|-------------------------------------0-----|
A|-------------------------------------2-----|
E|---------------------------------3---3-----|

when you been treated like a queen...

 Cadd9
e|---------------------------------3-----|
B|--------3/5---3------------------3-----|
G|------------------4p2---0--------0-----|
D|---------------------------------2-----|
A|-----------------------------3---3-----|
E|---------------------------------------|

'cause a queen dont know about givin'
Gadd9 (-palm mute-)
e|-------------------------------------3-----|
B|--------3/5---3----------------------3-----|
G|----------------------4p2---0--------0-----|
D|-------------------------------------0-----|
A|-------------------------------------2-----|
E|---------------------------------3---3-----|

i aint lookin' to receive

CHORUS:

 EmF#G
sometimes your life can crumble...
 EmF#G
sometimes your sole might make you stumble...
 EmF#G
but you cant drown in your sorrow...
 EmF#G
'cause ya' might be found, ya' might be found tomorrow...

BRIDGE: Cadd9 - Gadd9 (play until CHORUS comes again)

CHORUS:
 EmF#G
sometimes your life can crumble...
 EmF#G
sometimes your sole might make you stumble...
 EmF#G
but you cant drown in your sorrow...
 EmF#G
'cause ya' might be found, ya' might be found tomorrow...
 EmF#G
i said, ya' might be found, ya' might be found tomorrow...
 EmF#G
well, ya' might be found, ya' might be found tomorrow...
 EmF#G
i said, ya' might be found, ya' might be found tomorrow...
 EmF#G
well, ya' might be found, ya' might be found tomorrow...
 EmF#G
i said, ya' might be found, ya' might be found tomorrow...

ENDING:
(end on main riff, but play it slower where all the notes are heard clearly)

Cadd9 (let chord resonate)
e|---------------------------3-----|
B|-----3/5---3---------------3-----|
G|---------------4---2---0---0-----|
D|---------------------------2-----|
A|---------------------------3-----|
E|---------------------------------|


END

+--------------------------------------------------------------------------+

| This file is the author's own work and represents their interpretation |
| of the song. You may only use this file for private study, scholarship, |
| or research. |
+--------------------------------------------------------------------------+


Ultimate-Guitar.Com © 2005


Cadd9 Em F# G
variations - click chord images
Transpose chords:
Tuning:
Cool service:
View: Size:
A  A  A
Rating:
Layout:
  • Currently 0/5 Stars.
  • 1
  • 2
  • 3
  • 4
  • 5
 
Accuracy:
  • Currently 0/5 Stars.
  • 1
  • 2
  • 3
  • 4
  • 5
 
click stars to rate
Chordie recommends:
Learn to play guitar with video-based, online guitar lessons at JamPlay.com
Songbook:
Login to add this song to your songbook
Support the artist
Preview/buy this song
MSN Music
Why this non-profit ad?

 
login to add comments/video/corrections