Amber

311

e:-------------------------------------------------|-------------------------------|

B:-------------------------------------------------|-------------------------------|
G:------------------------9------------------------|-------------------------------|
D:--------9------------10---10----------9----9-----|-------------------------------|
A:-7-8-10---10---10-12-----------7-8-10---10---10--|--------------2222-22---2222---|
E:-------------------------------------------------|--8888--5555--0000-00-3-0000---|
E|--0000--0000--0000-00--0--0000-----|------5555--0000--0000-00--0--0000---|
B|--1111--1111--0000-00--3--0000-----|------5555--1111--0000-00--3--0000---|
G|--0000--2222--0000-00--0--0000-----|------5555--2222--0000-00--0--0000---|
D|--2222--2222--2222-22--2--2222-----|------5555--2222—-2222-22--2--2222---|
A|--3333--0000--2222-22--2--2222-----|------3333--0000--2222-22--2--2222---|
E|--------------0000-00--0--0000-----|------------------0000-00--0--0000---|
 CAmEmEmE/GEmC5AmEmEmE/GEm
 (1st Verse C-chord)                     (Chorus C- chord)           

 CAmEmCAmEmCAmEm
      Brainstorm; take me away from the norm    I've got to tell you something    
 EmEmEmCAmEm
      This phenomenon,   I had to put it in a song and it goes like

 C5AmEm
 Whoa, Amber is the color of your energy
Whoa, Shades of gold display naturally

 FG
 You want to know what brings me here, oh
 FGEmC
 Glide through my head like to fear,     and I know why

 C5AmEm
 Whoa, Amber is the color of your energy
Whoa, Shades of gold display naturally

Solo
e|----------10-12-10----10--------------------10-12-10----10--------10------------|
b|---/13-13----------13----12----------/13-13----------13----12--12----12-12------|
g|-----------------------------7-7--------------------------------------------10~-|
d|---------------------------------9----------------------------------------------|
a|--------------------------------------------------------------------------------|
E|--------------------------------------------------------------------------------|
E|-----------|------------|--------------------|
B|-----------|------------|--------------------|
G|-2-4-5-4-2-|--4-5-7-5-4-|--5-7--9-7-5-4---4--|
D|-3-5-7-5-3-|--5-7-9-7-5-|--7-9-10-9-7-5---3--|
A|-----------|------------|--------------------|
E|-----------|------------|--------------------|


 C5AmEm
 Whoa, Amber is the color of your energy
Whoa, Shades of gold display naturally

E|--8-10-12---12-12--15-12-----------0-0-0-0------|
B|--8-10-12---12-12--------15-13\----1-1-1-1------|
G|--9-10-12--------------------------2-2-2-2------|
D|-----------------------------------2-2-2-2------|
A|-----------------------------------0-0-0-0------|
E|------------------------------------------------|


 AmEm
 You live too far away
Am Em G F5-ring
Your voice rings like a bell anyway
Em-ring F5-ring
Don't give up your independence, 'cuz it feels so right
 EmGC5
Nothing good comes easily, sometimes you've got to fight

 AmEm
Whoa, Amber is the color of your energy
 C5AmEm
 Whoa, Shades of gold display naturally

 FGF
 You launch a thousand ships in my heart, so easy
 FGEm
 Still it's fine from afar, and you know that

 C5AmG
 Whoa, Brainstorm take me away from the norm
 C5AmGC5
 Whoa, I've got to tell you something  

Seadog70@comcast.net

END

+--------------------------------------------------------------------------+

| This file is the author's own work and represents their interpretation |
| of the song. You may only use this file for private study, scholarship, |
| or research. |
+--------------------------------------------------------------------------+


Ultimate-Guitar.Com © 2005


Am C C5 E/G Em F G
variations - click chord images
Transpose chords:
Tuning:
Cool service:
View: Size:
A  A  A
Rating:
Layout:
  • Currently 4.5/5 Stars.
  • 1
  • 2
  • 3
  • 4
  • 5
 
Accuracy:
  • Currently 4/5 Stars.
  • 1
  • 2
  • 3
  • 4
  • 5
 
click stars to rate
Chordie recommends:
Check out JamPlay.com for online video guitar lessons
Songbook:
Login to add this song to your songbook
Support the artist
Preview/buy this song
MSN Music
Why this non-profit ad?

 
login to add comments/video/corrections