Guitar Tabs, Chords and Lyrics


Combat Baby   Metric



| Ultimate Guitar Tabs Archive - your #1 source for tabs!               |
| http://www.ultimate-guitar.com/                                       |
|                                                                       |
| Over 200,000 guitar, guitar pro and bass tabs! Also lessons, news,    |
| columns and guitar forums!                                            |


Artist: Metric
Song: Combat Baby


I'm pretty sure the intro is played on bass. but whatever, this works.

Verse 1
e---------------------------------------|
A---------------------------------------|
D---------------------------------------|
G-------4-------6--------2-------2------|
B--2-2----2/4-4---4--0-0---0-0-0--0-----|
E---------------------------------------|

e---------------------------------------|
A---------------------------------------|
D---------------------------------------|
G------4--------6--------9---7--6-------|
B-2-2-----2/4-4---4/7-7----7---7--7-----|
E---------------------------------------|

e---------------------------------------|
A---------------------------------------|
D---------------------------------------|
G-------4-------6--------2-------2------|
B--2-2----2/4-4---4--0-0---0-0-0--0-----|
E---------------------------------------|

e---------------------------------------|
A---------------------------------------|
D---------------------------------------|
G------4--------6--------9---7--6-------|
B-2-2-----2/4-4---4/7-7----7---7--7-----|
E---------------------------------------|

e---------------------------------------|
A---------------------------------------|
D---------------------------------------|
G-----4--------6-------2-------2--------|
B-2-2---2/4-4----4/0-0---0-0-0---0------|
E---------------------------------------|

e---------------------------------------|
A---------------------------------------|
D---------------------------------------|
G-----4-------6-------------------------|
B-2-2---2/4-4---4------4-------4--------|
E------------------2-2---2-2-2----------|

e---------------------------------------|
A---------------------------------------|
D---------------------------------------|
G-------4-------6--------2-------2------|
B--2-2----2/4-4---4--0-0---0-0-0--0-----|
E---------------------------------------|
Pre Chorus
  None of them want to fight me.
e---------------------------------------|
B---------------------------------------|
G-4444--4444--22222222------------------|
D-4444--4444--22222222------------------|
A-2222--1111--00000000------------------|
E---------------------------------------|





e---------------------------------------|
B---------------------------------------|
G-99--999-----------666--666-666-6/444--|
D-99--999--666--666-666--666-666-6/444--|
A-77--777--666--666-444--444-444-4/222--|
E-00--000--444--444---------------------|

e------------------------------------0000--|
A-----------------------------------0-000--|
D-999--999-----------666--666-666---6-444--|
G-999--999--666--666-666--666-666---6-444--|
B-777--777--666--666-444--444-444---4-222--|
E-000--000--444--444-----------------------|

e---------------------------------------|
B---------------------------------------|
G-99--999-----------666--666-666-6/444--|
D-99--999--666--666-666--666-666-6/444--|
A-77--777--666--666-444--444-444-4/222--|
E-00--000--444--444---------------------|

e---------------------------------------|
B---------------------------------------|
G-99--999-----------666--666-66/--------|
D-99--999--666--666-666--666-66/--------|
A-77--777--666--666-444--444-44/--------|
E-00--000--444--444---------------------|

it does the same thing from the first verse until the end of the chorus.


Bridge
e----------------------------------------------------------|
A----2---2---2---2------4---4---4---4-----5---5---5---5----|
D-1-1-1-1-1-1-1-1--1/2-2-2-2-2-2-2-2-2/3-3-3-3-3-3-3-3--3--|
G----------------------------------------------------------|
B----------------------------------------------------------|
E----------------------------------------------------------|

e-----------------------0---0---0---0-----0---0---0---0--|
A-----4---4---4---4-----2---2---2---2-----4---4---4---4--|
D--2-2-2-2-2-2-2-2-2-1-1-1-1-1-1-1-1-1-2-2-2-2-2-2-2-2-2-|
G--------------------------------------------------------|
B--------------------------------------------------------|
E--------------------------------------------------------|


e----0---0---0---0-----0---0---0---0----------|
A----5---5---5---5-----4---4---4---4----------|
D-3-3-3-3-3-3-3-3-3-2-2-2-2-2-2-2-2-2---------|
G---------------------------------------------|
B---------------------------------------------|
E---------------------------------------------|
and repeat until it goes back to the chorus.

END

+--------------------------------------------------------------------------+
| This file is the author's own work and represents their interpretation   |
| of the song. You may only use this file for private study, scholarship,  |
| or research.                                                             |
+--------------------------------------------------------------------------+



Important: The song above is NOT stored on the Chordie server. The original song is hosted at www.ultimate-guitar.com. Chordie works as a search engine and provides on-the-fly formatting. Chordie does not index songs against artists/composers will. To remove this song please click here.

This song is displayed as text-only. Transposing and tuning is only available for chordpro-songs.

Login - add to songbook

Rating click stars to rate

Layout
Accuracy

SHARE PAGE  




You need to log in to post comments