Affirmation

George Benson

George Benson
 Em9
E||-----------------------|------------5----7--------|------------5---7---5---------|
B||-----------------2-3-5-|--5/7--7--5---------7h8---|--5h7--7--5-------8---7-8-5h7-|
G||-------------2-4-------|--------------------------|------------------------------|
D||-----------------------|--------------------------|------------------------------|
A||-----------------------|--------------------------|------------------------------|
E||-----------------------|--------------------------|------------------------------|

 Bm7Em9
------------------------|------------------------------------|-----------5-------------|
--5---5-----------------|--5---5---3-------------------------|------7--5------8--7-5---|
----------7-----------4-|--6---6---4----------6---4----------|-------------------------|
------------------4h7---|-----------------4-7---7----7-4-----|-------------------------|
------------------------|-------------4-5----------------5---|-------------------------|
------------------------|----------------------------------7-|--0----------------------|

 Bm7
------------5-------------|------------------------|---------------------|
--5h7--7--5------8--7-5---|--5---5---3-------------|--5---5---3----------|
--------------------------|--------------------2-4-|--6---6---4----------|
--------------------------|------------------4-----|---------------------|
--------------------------|------------------------|---------------------|
--------------------------|------------------------|---------------------|

 Bm7Am7D7
---------------------------|-------------------7---5-6---------|
--5---5--------------------|---------------5-8---8-----7-4-----|
----------7----6---5-------|-------4-7-4-5-----------------4-5-|
-----------------7---6/5-3-|-----5-----------------------------|
---------------------------|--7--------------------------------|
---------------------------|-----------------------------------|

 G9
---------------7-------14-------|--------------------------------|
-------------7---7--15----15-17-|-------15--------15-11-14-12----|
--7-4------4--------------------|----16-----------------------11-|
--------------------------------|--------------------------------|
--------------------------------|--------------------------------|
--------------------------------|--------------------------------|

 E9
------------------------------------------|--------------------------------------------|
------------------------------------------|----------------8---------------------------|
------14-11-13-11-----------11------------|------------------10-8----------------------|
--14--------------14-13-12-----12p11------|----------9-12---------9---------------9-12-|
-------------------------------------14---|--12-9-11----------------11-10-8----11------|
------------------------------------------|---------------------------------12---------|

 A9sus4
-----------------------------------------|
-----10----------------------------------|
--11----9----9-10-9-7--------------7-----|
----------------------9-8--------9-------|
--------------------------10-8-7-----12--|
-----------------------------------------|
---------------------------------------------------------------------------|
-----------------12---------12--------------12-----------------------------|
-----------10h11----11-10p9----9-------------------------------------------|
--10-11-12-----------------------12-11-10-9----9------------12-------------|
-------------------------------------------------12-11-10-9----9-----------|
------------------------------------------------------------------12-10-12-|

 Em9

----------------------------|----------10--10---------10--------10-|
----------------------------|-------10----------12-10-----12-10----|
----------------------------|---11---------------------------------|
--11------------------9--12-|--------------------------------------|
-------9--------------------|--------------------------------------|
-----------12-----12--------|--------------------------------------|

 Bm7
---------10--12-9----------------|---------------------------------------10-|
---12-10----------------10----10-|---------------------------------10-12----|
---------------------------11----|----11----11------------------11----------|
---------------------------------|-------12----12-9-12--12-9-12-------------|
---------------------------------|------------------------------------------|
---------------------------------|------------------------------------------|

 Em9
--------------------------|---------------------------------------|
-----------------12-------|---------------12--------10------------|
-----------------11-------|---------------10h11--12----11---------|
---12--12---9-12----------|------9-12--9------------------12-9----|
--------------------------|---12-------------------------------12-|
--------------------------|---------------------------------------|

 Bm7
----------------------------------14---|---10-9---------------------------|
-------------------------------14------|--------10------------------------|
--11---11-------------------14---------|-----------11-6-6-----------------|
-----------11-14---12p11h12------------|------------------7-------------7-|
---------------------------------------|--------------------9-------------|
---------------------------------------|----------------------7-----------|

 Bm7Am7D7
------------------10--9-8-|-------12--7------------------|
--------------------------|-------------8-----------9-11-|
--9---------7-6-7---------|---------------9------8-------|
--------------------------|-----------------10-7---------|
--------------------------|------------------------------|
--------------------------|------------------------------|

 G9C9F9
----------------------------------|-------------------------------|
--12-----10-----------------------|-----------------10--8---------|
------11---------------11-------9-|--9-10------------------7-9-11-|
---------------9--9-12-----9-12---|--------12----9----------------|
----------------------------------|-------------------------------|
----------------------------------|-------------------------------|

 F#m9Em9Eb9
---------10-10------------------|--10--8--8--------------------------|
---10-10------------------------|------------------------------------|
------------11------------------|------9--9------------------7-9-----|
-------------------9--12--12-9--|-----------12-9-----------9---------|
--------------------------------|----------------12-9----8-----------|
--------------------------------|---------------------11----------10-|

 D9
-----------------------------------------|
-----------------------------------------|
---------7---7---7---7---7---7---7---7---|
-----------7---7---7---7---7---7---7---7-|
----9------------------------------------|
-----------------------------------------|

 Bb7
-----------------------------------------------------|-------------------------|
-----------------------------------------------------|-----------------------6-|
--7---7---7---7---7---7---7---7---7---7---7---7---7--|-------7-7-7---7-7--8----|
----7---7---7---7---7---7---7---7---6---4---4---6----|-------------------------|
-----------------------------------------------------|-------------------------|
-----------------------------------------------------|-------------------------|
---------------------------------|------------------------------|
---------------------------------|--------------13--13/---15----|
--7------------------------------|--7--7/10-10------------------|
-----------------7-7h8-8h-10--10-|------------------------------|
-----8-8h10-10-------------------|------------------------------|
---------------------------------|------------------------------|

 Bb7

--------------------------------------------|----------------------------------10p8-|
---13-13-18--18--18/16-16/15-15-15--13--13/-|--11--11--10--10---------------10------|
--------------------------------------------|-------------------7-7-----7-9---------|
--------------------------------------------|---------------------------------------|
--------------------------------------------|---------------------------------------|
--------------------------------------------|---------------------------------------|

 A9sus4
----------------------------------|-----------------------------------10-14/-17-13-|
--10-6----------------------10-10-|----12--------------------------10--------------|
-------10-7-----------------------|------------------11----9-11/12-----------------|
------------10-8-0----------------|-------------9-12----12-------------------------|
----------------------------------|--------9-10------------------------------------|
----------------------------------|------------------------------------------------|

 Bm7
--14-------------------------13-14-15-13-14---------|--------------------|--------------||
-----15----------------12-15----------------15-12---|--15----------------|--------------||
--------14-13-12----12------------------------------|--------------------|--------------||
-----------------15---------------------------------|--------------------|--------------||
----------------------------------------------------|--------------------|--------------||
----------------------------------------------------|--------------------|--------------||


END

+--------------------------------------------------------------------------+

| This file is the author's own work and represents their interpretation |
| of the song. You may only use this file for private study, scholarship, |
| or research. |
+--------------------------------------------------------------------------+


Ultimate-Guitar.Com © 2005


A9sus4 Am7 Bb7 Bm7 C9 D7 D9 E9 Eb9 Em9 F#m9 F9 G9
variations - click chord images
Transpose chords:
Tuning:
Cool service:
View: Size:
A  A  A
Rating:
Layout:
  • Currently 4/5 Stars.
  • 1
  • 2
  • 3
  • 4
  • 5
 
Accuracy:
  • Currently 4/5 Stars.
  • 1
  • 2
  • 3
  • 4
  • 5
 
click stars to rate
Chordie recommends:
Learn how to play guitar at JamPlay.com
Songbook:
Login to add this song to your songbook
Support the artist
Preview/buy this song
MSN Music
Why this non-profit ad?

 
login to add comments/video/corrections