"yes"; ?> At Last by Eva Cassidy - guitar chords, guitar tabs and lyrics - chordie

At Last

Eva Cassidy

 G355433
 Em        0
Am7 5 x 5 5 5 5
Eb7/Bb 6 x 5 6 4 x
D7/A 5 x 4 5 3 x
D9 x 5 4 5 5 5
E 0 2 2 1 0 0
 G7353433
 C7        x
G7b9 3 x 3 4 3 4
Am7(open) x 0 2 0 1 0
Dsus4 x x 0 2 3 3
D x x 0 2 3 2
Gmaj7 3 x 0 0 0 2
G6 3 x 0 0 0 0
 F#7242322
 Bm7       2
Bm7/A 5 x 4 2 3 2
A7 x 0 2 0 2 0
F#dim7 x x 4 5 4 5
 G7/9353435
Intro, repeat twice:

 GEmAm7Eb7/BbD7/A
|--3-3-3-3------|--------0-0----|-------5-------|---------------|
|--3-3-3-3------|--------0-0----|-------5-------|--4-----3------|
|--4-4-4-4------|----0-0-0-0----|-5---5-5-------|--6-----5------|
|--5-5-5-5------|----2-2-2-2-0--|-5---5-5-------|--5-5---4-4----|
|---------------|---------------|-----------0---|---------------|
|----------3-2--|--0------------|-5-------------|------6-----5--|


Verse:

At last my love has
 GEmAm7Eb7/BbD7/A
|--------3------|--------0------|--------5------|---------------|
|--------3------|--------0------|--------5------|--4----3-------|
|--------4------|-----0--0------|-5------5------|--6----5-------|
|--------5------|----2------0---|-5------5------|--5----4-------|
|---------------|---2-----------|---------------|---------------|
|--3-------3-2--|-0-------------|-5---5---------|--6----5-----5-|

come along My lonely days
 GEmAm7D9
|--------3------|--------0------|--------5------|--5------5-----|
|--------3------|--------0------|--------5------|--5------5-----|
|--------4------|-----0--0------|-5------5------|--5------5-----|
|--------5------|----2------0---|-5------5------|--4------4-----|
|---------------|---2-----------|---------------|--5---5—-5-----|
|--3-------3-2--|-0-------------|-5---5---------|---------------|


are over and life is like a
 GEmAm7Eb7/BbD7/A

|---3----3------|--------0------|--------5------|---------------|
|---3----3------|--------0------|--------5------|-4----3--------|
|---4----4------|-----0--0------|-5------5------|-6----5--------|
|---5----5------|----2------0---|-5------5------|-5----4--------|
|---5----5------|---2-----------|---------------|---------------|
|---3----3-3-2--|-0-------------|-5---5---------|-6----5-----5--|


song 0h Yeah
 GEEb7/BbD7/A
|--------3------|--------0------|---------------|---------------|
|--------3------|--------0------|-4-------------|--3----3-3-3---|
|--------4------|--------1------|-6-------------|--5----5-5-5---|
|--------5------|----2------2---|-5---5---------|--4----4-4-4---|
|---------------|---------------|---------------|---------------|
|--3-------3-2--|-0-------------|-----6---------|-------5-------|


At last the skies above are
 GEmAm7Eb7/BbD7/A
|--------3------|--------0------|--------5------|---------------|
|--------3------|--------0------|--------5------|-4------3------|
|--------4------|-----0--0------|-5------5------|-6------5------|
|--------5------|----2------0---|-5------5------|-5------4------|
|---------------|---2-----------|---------------|---------------|
|--3-------3-2--|-0-------------|-5---5---------|-6------5----5-|


blue And my heart was
 GEmAm7D9
|--------3------|--------0------|--------5------|--5------5-----|
|--------3------|--------0------|--------5------|--5------5-----|
|--------4------|-----0--0------|-5------5------|--5------5-----|
|--------5------|----2------0---|-5------5------|--4------4-----|
|---------------|---2-----------|---------------|--5---5—-5-----|
|--3-------3-2--|-0-------------|-5---5---------|---------------|


wrapped in clover the night I
 GEmAm7D7/A
|---3----3------|--------0------|--------5------|---------------|
|---3----3------|--------0------|--------5------|--4-----4------|
|---4----4------|-----0--0------|-5------5------|--6-----6------|
|---5----5------|----2------0---|-5------5------|--5-5-5-5-5-5--|
|---5----5------|---2-----------|---------------|---------------|
|---3----3-3-2--|-0-------------|-5---5---------|--6-6-6-6-6-6--|


looked at you
 G7C7G7G7b9
|--------3------|---------------|--3-3-3-3-3-3--|-4-4-4-4-4-----|
|--------3------|--1-1-1-1-1-1--|--3-3-3-3-3-3--|-3-3-3-3-3-5---|
|--------4------|--3-3-3-3-3-3--|--4-4-4-4-4-4--|-4-4-4-4-4-4---|
|--3-3-3-3-3-3--|--2-2-2-2-2-2--|--3-3-3-3-3-3--|-3-3-3-3-3-----|
|--5-5-5-5-5-5--|--3-3-3-3-3-3--|---------------|---------------|
|--3-3-3-3-3-3--|---------------|---------------|---------------|


The bridge is not tabbed, as it's simply strummed 6/8 time with 6 down strokes for each bar.

Bridge:
Am7(open) D Gmaj7 G6
I found a dream that I could speak to

 F#7G7F#7Bm7Bm7/ABm7Bm7/A
A dream that I             could call my own          

 EmA7DF#dim7
I found a thrill    to press my cheek to  

Em A7 Am7(open) D
A thrill that I have never known Oh yeah yeah

Verse:

You smiled Oh and then the
 GEmAm7Eb7/BbD7/A

|--------3------|--------0------|--------5------|---------------|
|--------3------|--------0------|--------5------|--4----3-------|
|--------4------|-----0--0------|-5------5------|--6----5-------|
|--------5------|----2------0---|-5------5------|--5----4-------|
|---------------|---2-----------|---------------|---------------|
|---3------3-2--|-0-------------|-5---5---------|--6----5----5--|


spell was cast And here we are in
 GEmAm7D9
|--------3------|--------0------|--------5------|-5--------5----|
|--------3------|--------0------|--------5------|-5--------5----|
|--------4------|-----0--0------|-5------5------|-5--------5----|
|--------5------|----2------0---|-5------5------|-4--------4----|
|---------------|---2-----------|---------------|-5----5—--5----|
|--3-------3-2--|-0-------------|-5---5---------|---------------|


heaven for you were mine at
 GEmEb7/BbD7/A
|--------3------|--------0------|---------------|---------------|
|------3--------|------0-0------|-4-------------|--3------------|
|----4----------|----0---0------|-6-------------|--5------------|
|---------------|---------------|-5---5---------|--4----4-------|
|---------------|---------------|---------------|---------------|
|--3-------3-2--|--0------------|-----6---------|-------5----5--|


last for you were mine at
 GEmAm7Eb7/BbD7/A
|--------3------|--------0------|--------5------|---------------|
|--------3------|--------0------|--------5------|-4------3------|
|--------4------|-----0--0------|-5------5------|-6------5------|
|--------5------|----2------0---|-5------5------|-5------4------|
|---------------|---2-----------|---------------|---------------|
|--3-------3-2--|-0-------------|-5---5---------|-6------5----5-|


last
 GEmAm7Eb7/BbD7/A
|--------3------|--------0------|--------5------|---------------|
|--------3------|--------0------|--------5------|-4-4-4--3-3-3--|
|--------4------|-----0--0------|-5------5------|-6-6-6--5-5-5--|
|--------5------|----2------0---|-5------5------|-5-5-5--4-4-4--|
|---------------|---2-----------|---------------|---------------|
|--3-------3-2--|-0-------------|-5---5---------|-6-6-6—-5-5-5--|


 G7/9
|--5----------|
|--3----------|
|--4----------|
|--3----------|
|--5----------|
|--3----------|


END

+--------------------------------------------------------------------------+

| This file is the author's own work and represents their interpretation |
| of the song. You may only use this file for private study, scholarship, |
| or research. |
+--------------------------------------------------------------------------+


Ultimate-Guitar.Com © 2005


A7 Am7 Bm7 Bm7/A C7 D D9 E Em F#7 F#dim7 G G7 G7/9 G7b9
variations - click chord images
Transpose chords:
Tuning:
Cool service:
View: Size:
A  A  A
Rating:
Layout:
  • Currently 5/5 Stars.
  • 1
  • 2
  • 3
  • 4
  • 5
 
Accuracy:
  • Currently 5/5 Stars.
  • 1
  • 2
  • 3
  • 4
  • 5
 
click stars to rate
Chordie recommends:
Learn how to play guitar at JamPlay.com
Songbook:
Login to add this song to your songbook
Support the artist
Preview/buy this song
MSN Music
Why this non-profit ad?

 
login to add comments/video/corrections