Chordie logo

In The Light   Led Zeppelin



| Ultimate Guitar Tabs Archive - your #1 source for tabs!               |
| http://www.ultimate-guitar.com/                                       |
|                                                                       |
| Over 200,000 guitar, guitar pro and bass tabs! Also lessons, news,    |
| columns and guitar forums!                                            |


Artist: Led Zeppelin
Song: In The Light


IN THE LIGHT

Led Zeppelin

(From the 1975 Album PHYSICAL GRAFFITI)

Words and Music by Jimmy Page, Robert Plant & John Paul Jones

Gtr I (E A D G B E) - 'John Paul Jones - Synth arr for gtr.'
Gtr II (E A D G B E) - 'John Paul Jones - Clavinet arr for gtr.'
Gtr III (E A D G B E) - 'Jimmy Page - Rhythm w/overdrive'
Gtr IV, V (E A D G B E) - 'Jimmy Page - Lead w/dist'

Intro - Free Time
 4/4
  Gtr I
  W          H    Q   Q         +H.       +Q      +E  E Q  Q  E  E
|----------|-----------------|-----------------|-----------------------|
|----------|-----------------|-----------------|-----------------------|
|----------|---------12b14===|=(12)------(12)r=|=(12)-----------12b14==|
|----------|-----------------|-----------------|-----------------------|
|----------|-----------------|-----------------|-----------------------|
|----------|-----------------|-----------------|-----------------------|


   +H.       +Q      +E  E Q  Q  E  E
|-----------------|-----------------------|
|-----------------|-----------------------|
|-(12)------(12)r=|=(12)-----------12b14==|
|-----------------|-----------------------|
|-----------------|-----------------------|
|-----------------|-----------------------|


   +H       E  E  Q     +H      +E   E  Q
|--------------------|--------------15------|
|----------14-15-17--|-(17)----(17)----15---|
|-(12)r--------------|----------------------|
|--------------------|----------------------|
|--------------------|----------------------|
|--------------------|----------------------|


        |--3--|
   +E   S  S  S  S  S  E  Q.     E
|---------------------15-17-------------|
|-(15)-17p15p14-15h17-----------17pb20==|
|---------------------------------------|
|---------------------------------------|
|---------------------------------------|
|---------------------------------------|


                                                      |--3--|
   +Q     a  Q  E  E  E  E    E   E       a   Q   Q   S  S  S  +E
|--------------------------|-----------------17--15--17p15----------|
|-(17)r=(17)---------14-15-|-17--17pb20r(17)---------------17-(17)--|
|-----------------14-------|----------------------------------------|
|--------------------------|----------------------------------------|
|--------------------------|----------------------------------------|
|--------------------------|----------------------------------------|



   a      +Q.     E  +E   Q.        a    H    Q  E  E
|-19b21==(19)r---17-(17)---------------|------------------|
|------------------------17pb20r==(17)-|-----------15b17==|
|--------------------------------------|------------------|
|--------------------------------------|------------------|
|--------------------------------------|------------------|
|--------------------------------------|------------------|


   +H       Q   +E   S  S    S  S  S  S  a      +Q    +H       a
|-------------------------|----------------------------------------|
|-(15)r----15--(15)-17p15-|-14h15h17-14-17b20==(17)--(17)r===(17)--|
|-------------------------|----------------------------------------|
|-------------------------|----------------------------------------|
|-------------------------|----------------------------------------|
|-------------------------|----------------------------------------|


  H    E  a      +Q     a      +E     +E    S  S  S  S  S  S  +S   E  S  +Q
|----------------------------------|-------21-22-21-17-19---------------------|
|--------17b20==(17)r--20b22==(20)-|-(20)r----------------20-(20)-19-17-(17)--|
|----------------------------------|------------------------------------------|
|----------------------------------|------------------------------------------|
|----------------------------------|------------------------------------------|
|----------------------------------|------------------------------------------|


   +E   S  S   Q        +Q     a  Q    E   E      +E   E  Q.     E
|------------------------------------|----------------------------------|
|-(17)-19-20--20pb22===(20)r=(20)----|----17pb19r(17)-14s17-----20pb22==|
|------------------------------------|----------------------------------|
|------------------------------------|----------------------------------|
|------------------------------------|----------------------------------|
|------------------------------------|----------------------------------|


                               |--3--|
   +H.       +Q     a    E  E  E  E  E  E      +E   E  E
|----------------------|---------------------------------|
|-(20)------(20)r=(20)-|------14-15-17-17pb20r(17)-14s17-|
|----------------------|---14----------------------------|
|----------------------|---------------------------------|
|----------------------|---------------------------------|
|----------------------|---------------------------------|


                     |--3--|                |--3--|
   +Q    S  S  S  S  E  E  E  Q     +E   E  S  S  S E E  E  E  E
|-------21-22-21-17-19-15-17-----|--------------------------------|
|-(17)-----------------------17--|-(17)-15-17p15p14--------14-15--|
|--------------------------------|----------------------14--------|
|--------------------------------|--------------------------------|
|--------------------------------|--------------------------------|
|--------------------------------|--------------------------------|


                    |-3-| |--3--|                          |--3--|
   E  S  S  S  E.  +Q   E E  E  E    Q        +Q     a  Q  E  E  E
|---------------------------------|--------------------------------|
|-15------------------------------|--------------------------------|
|----16-16-12-12--(12)-11-9-11-12-|-12pb14===(12)r=(12)----9-11-12-|
|---------------------------------|--------------------------------|
|---------------------------------|--------------------------------|
|---------------------------------|--------------------------------|


   Q        a       +Q    +E    E  E  E    Q        a       +Q     E      +E   E  E
|---------------------------------------|---------------------------------------------|
|------------------------------15-14----|-15pb17r=(15)b17==(15)r--17pb20r(17)-14h17---|
|-12pb14r=(12)b14==(12)--(12)r-------14-|---------------------------------------------|
|---------------------------------------|---------------------------------------------|
|---------------------------------------|---------------------------------------------|
|---------------------------------------|---------------------------------------------|



   +Q   a     +Q     a      +Q     a      +Q       a      +H       a     +Q     a      +Q
|----------------------------------------------|------------------20b22=(20)r=(20)b22=(20)r--|
|-(17)-20b22=(20)r=(20)b22=(20)r=(20)b22=(20)r=|=(20)b22=(20)r-------------------------------|
|----------------------------------------------|---------------------------------------------|
|----------------------------------------------|---------------------------------------------|
|----------------------------------------------|---------------------------------------------|
|----------------------------------------------|---------------------------------------------|


   |--3--|          |--3--|    |--3--|
   E  E  E  +H      E  E  E    E  E  E  E E  E E a     +Q    a
|-19----17-(17)----17-15-14-|----14-15-17-9-10-7----------------|
|----20---------------------|-17--------------------------------|
|---------------------------|--------------------9b12==(9)r=(9)-|
|---------------------------|-----------------------------------|
|---------------------------|-----------------------------------|
|---------------------------|-----------------------------------|


  H    E S S  Q     +W            +W            +H     H
|----------------|-------------|-------------|--------------||
|--------7-8-10--|-(10)--------|-(10)--------|-(10)---------||
|----------------|-------------|-------------|--------------||
|----------------|-------------|-------------|--------------||
|----------------|-------------|-------------|--------------||
|----------------|-------------|-------------|--------------||


 Verse
  ca. Q=128
  Gtr II
  E E E E E E E E   W          W          Q  E E E E E E
|-----------------|----------|----------|-----------------|
|-----------------|----------|----------|-----------------|
|---------------0-|-2--------|----------|-----------------|
|---------0-2-3---|----------|----------|--------------0--|
|---0-2-3---------|----------|----------|--------0-2-3----|
|-0---------------|----------|----------|------0----------|


  E E E E H      +W           W          H    Q  E E
|--------------|------------|----------|--------------|
|--------------|------------|----------|--------------|
|-----0-1-2----|-(2)--------|----------|--------------|
|-2-3----------|------------|----------|--------------|
|--------------|------------|----------|--------------|
|--------------|------------|----------|-----------0--|


  E E E E E E E E   W          W          Q  E E E E E E
|-----------------|----------|----------|-----------------|
|-----------------|----------|----------|-----------------|
|-------------0-1-|-2--------|----------|-----------------|
|-------0-2-3-----|----------|----------|-----------------|
|-0-2-3-----------|----------|----------|--------0---0-2--|
|-----------------|----------|----------|------0---3------|


  E E E E E Q.     +W           W          H    Q  E E
|----------------|------------|----------|--------------|
|----------------|------------|----------|--------------|
|---------0-2----|-(2)--------|----------|--------------|
|---0-2-3--------|------------|----------|--------------|
|-3--------------|------------|----------|--------------|
|----------------|------------|----------|-----------0--|


  E E E E E E E E   E E +H.        +W           Q  E E E E E E
|-----------------|--------------|------------|-----------------|
|-----------------|--------------|------------|-----------------|
|-----------------|-0-2-(2)------|-(2)--------|-----------------|
|-----------0-2-3-|--------------|------------|------------0-2--|
|-0---0-2-3-------|--------------|------------|------0-2-3------|
|---3-------------|--------------|------------|----0------------|


  E E E E +H       +H     H      W          Q  E E E E E E
|----------------|-------------|----------|-----------------|
|----------------|-------------|----------|-----------------|
|---0-1-2-(2)----|-(2)---------|----------|-----------------|
|-3--------------|-------------|----------|------------0-2--|
|----------------|-------------|----------|------0-2-3------|
|----------------|-------------|----------|----0------------|


  E E E E +H       +H     H      W          H    E E E E
|----------------|-------------|----------|---------------|
|----------------|-------------|----------|---------------|
|---0-1-2-(2)----|-(2)---------|----------|---------------|
|-3--------------|-------------|----------|---------------|
|----------------|-------------|----------|----------0-2--|
|----------------|-------------|----------|--------0------|


  E E E E E E Q    +W           W          E E E E E E E E
|----------------|------------|----------|------------------|
|----------------|------------|----------|------------------|
|---------0-1-2--|-(2)--------|----------|------------------|
|---0-2-3--------|------------|----------|---------------0--|
|-3--------------|------------|----------|-----0---0-2-3----|
|----------------|------------|----------|---0---3----------|


                               2/4
  E E E E H      H    E E E E   E E E E
|--------------|--------------|---------||
|--------------|--------------|---------||
|-------0-2----|--------------|-------1-||
|-2-0-2--------|--------------|-0-2-3---||
|--------------|--------0-2-3-|---------||
|--------------|--------------|---------||


    A Tempo Q=128
   4/4
    Gtr IV
    W               H      E  Q.  a   W               H      E  Q.  a
||----------------|-----------------|---------------|-------------------||
||o---------------|-----------------|---------------|------------------o||
||----------------|----------14s==7-|---------------|----------14s==7---||
||----------------|----------14s==7-|---------------|----------14s==7---||
||o---------------|----------12s==5-|---------------|----------12s==5--o||
||----------------|-----------------|---------------|-------------------||
|
|   Gtr III
|   E Q.   E Q.     E Q.   E  Q.      E Q.   E Q.     E Q.   E  Q.
||----------------|-----------------|---------------|-------------------||
||o---------------|-----------------|---------------|------------------o||
||----------------|-----------------|---------------|-------------------||
||--7-6----5------|-----------------|-7-6----5------|-------------------||
||o----------7----|-6-5----3--0-----|----------7----|-6-5----3--0------o||
||----------------|-----------------|---------------|-------------------||
 |-Riff A                end Riff A-|


 Verse
  W             H       Q   E E   +W             +H.           +E  E
|------------|------------------|--------------|----------------------|
|------------|------------------|--------------|----------------------|
|------------|----------------0-|-(0)----------|-(0)-----------(0)-0--|
|------------|------------------|--------------|----------------------|
|------------|------------------|--------------|----------------------|
|------------|------------------|--------------|----------------------|
|
| Q  Q  H       E E E E E E E E    Q   Q  H       E  E E E E E  E  E
|------------|------------------|--------------|----------------------|
|------------|------------------|--------------|----------------------|
|------------|----------7-------|--------------|-----------7----------|
|-------7----|----7-----------5-|---------7----|-----7-------------5--|
|-0--0-------|-10---9-8---8-7---|--0---0-------|-10----9-8---8--7-----|
|------------|------------------|--------------|----------------------|
|-Riff B             end Riff B-|

w/Riff B x4
    +W             +H.           +E  E   +W             +H.           +E  E
||---------------|---------------------|--------------|----------------------||
||o--------------|---------------------|--------------|---------------------o||
||--(0)----------|-(0)-----------(0)-0-|-(0)----------|-(0)-----------(0)-0--||
||---------------|---------------------|--------------|----------------------||
||o--------------|---------------------|--------------|---------------------o||
||---------------|---------------------|--------------|----------------------||


                                   $
  +W             +W                   W               W
|--------------|-------------------||---------------|------------|
|--------------|-------------------||---------------|------------|
|-(0)----------|-(0)---------------||---------------|------------|
|--------------|-------------------||---------------|------------|
|--------------|-------------------||---------------|------------|
|--------------|-------------------||---------------|------------|
|
|  Q   Q  H       E  E E E E E E E    E Q.   E Q.
|--------------|-------------------||---------------|
|--------------|-------------------||---------------|
|--------------|-----------7-------||---------------|w/Riff B x7
|---------7----|-----7-----------5-||-7-6----5------|
|--0---0-------|-10----9-8---8-7---||----------7----|
|--------------|-------------------||---------------|


   H       Q   E E   +W               +H.           +E  E   +W            5x
|------------------|--------------||----------------------|---------------||
|------------------|--------------||o---------------------|--------------o||
|----------------0-|-(0)----------||--(0)-----------(0)-0-|-(0)-----------||
|------------------|--------------||----------------------|---------------||
|------------------|--------------||o---------------------|--------------o||
|------------------|--------------||----------------------|---------------||


                       Chorus
											 
w/Riff Ax4
  +W                    W
|-------------------||----------------|
|-------------------||o---------------|
|-(0)---------------||----------------|
|-------------------||----------------|
|-------------------||o---------------|
|-------------------||----------------|


 1.,2.,3.             4.
                                    To Coda
  H      E  Q.  a      H      E E     +Q
|------------------||-----------------------||
|-----------------o||-----------9b10==(9)---||
|----------14s==7--||-----------------------||
|----------14s==7--||-----------------------||
|----------12s==5-o||-----------------------||
|------------------||-----------------------||


    +W            +H.           Q    W             W
||--------------|------------------|------------|-------------------||
||o-(9)---------|-(9)r-------------|------------|------------------o||
||--------------|------------------|------------|-------------------||
||--------------|------------------|------------|-------------------||
||o-------------|------------------|------------|------------------o||
||--------------|------------------|------------|-------------------||
|
|   Gtr II
|    H     H       H      E  Q.      q  H    Q    +E  E Q  E E E E





||--------------|--0------0-(0)----|-3--3----2--|-(2)---2--3p2p0----||
||o--5-----5----|--2------0h=2-----|-3--3----3--|-(3)---3--3-----3-o||
||---6-----6----|--2------2-(2)----|-2--2----2--|-(2)---2--2--------||
||---7-----6----|------------------|-0--0----0--|-(0)-0-0--0--------||
||o--0----------|---------0-(0)----|------------|------------------o||
||---------4----|--2---------------|------------|-------------------||


                                                  +E  E Q  H
    Q  Q  E E Q    E E Q  E  E  Q    E E  H.          +H.          Q    4x
||---------------|-----------------|---------------|--------------------||
||o--------------|-----------------|-7-9-10--------|-(10)--------------o||
||---------------|--------6--7--9--|---------------|--------------------||
||---------------|-4-6-7-----------|---------------|--------------------||
||o-------4-5-7--|-----------------|---------------|-------------------o||
||-----5---------|-----------------|---------------|--------------------||
||-Riff C                                                    end Riff C-|
|
|   H     H        H      E  Q.      q    H     Q     +E  E Q  E E E E  4x
||---------------|-0------0-(0)----|-3----3-----2--|--(2)---2--3p2p0----||
||o-5-----5------|-2------0h=2-----|-3----3-----3--|--(3)---3--3-----3-o||
||--6-----6------|-2------2-(2)----|-2----2-----2--|--(2)---2--2--------||
||--7-----6------|-----------------|-0----0-----0--|--(0)-0-0--0--------||
||o-0------------|--------0-(0)----|---------------|-------------------o||
||--------4------|-2---------------|---------------|--------------------||
                                                      +E  E Q  H
  Gtr I
  W          H    E E  E  E    W           +E  E  E  E  H
|----------|----------------|-----------|--------------------|
|----------|----------------|-10--------|-(10)---------10----|
|----------|--------9-11-12-|-----------|------9-11-12-------|
|----------|----------------|-----------|--------------------|
|----------|----------------|-----------|--------------------|
|----------|----------------|-----------|--------------------|


   +H      E  E  E  E    a      +H       E  E  E  E
|------------------15-|-15b17==(15)r----21h22p21-17-|
|-(10)----14-15-17----|-----------------------------|
|---------------------|-----------------------------|
|---------------------|-----------------------------|
|---------------------|-----------------------------|
|---------------------|-----------------------------|


   E  E  E  S  S  S  S  E  E  E        +H.        E  E
|-15----------------------15-15b17==|=(15)r------15h17p=|
|----17-15h17p15p14-15h17-----------|-------------------|
|-----------------------------------|-------------------|
|-----------------------------------|-------------------|
|-----------------------------------|-------------------|
|-----------------------------------|-------------------|


   E  a      +E   +E       +E    H
|-15----------------------------------|
|----15b17==(15)r(15)b17==(15)rh17----|
|-------------------------------------|
|-------------------------------------|
|-------------------------------------|
|-------------------------------------|


   E      +E   E  E  E  Q   E        +H      +Q     a  Q
|----------------------15--15b17==|=(15)----(15)r=(15)----|
|-17pb20r(17)-14s17-17------------|-----------------------|
|---------------------------------|-----------------------|
|---------------------------------|-----------------------|
|---------------------------------|-----------------------|
|---------------------------------|-----------------------|


                                                                        Gtr II
  H    E E  E  E    H     +E   E  E  E    Q   a      +Q     a      +H


|----------------|---------------------|-------------------------------------||
|----------------|-10----(10)-12-14-15-|-17--17b20==(17)r--20b22==(20)r------||
|--------9-11-12-|---------------------|-------------------------------------||
|----------------|---------------------|-------------------------------------||
|----------------|---------------------|-------------------------------------||
|----------------|---------------------|-----------------------------------0-||
                                          H                         Q    E E


   Verse
    ca. Q=128
    E E E E E E E E   W          W          H    E E E E
||------------------|----------|----------|--------------|
||o-----------------|----------|----------|--------------|
||--------------0-1-|-2--------|----------|--------------|
||--------0-2-3-----|----------|----------|--------------|
||o-0-2-3-----------|----------|----------|----------0---|
||------------------|----------|----------|--------0---3-|


                   1.
  E E E E E E E E   +W           W          H    Q  E E
|-----------------|------------|----------|---------------||
|-----------------|------------|----------|--------------o||
|-------------0-2-|-(2)--------|----------|---------------||
|-------0-2-3-----|------------|----------|---------------||
|-0-2-3-----------|------------|----------|--------------o||
|-----------------|------------|----------|-----------0---||


  2.
                     D.S. al Coda
   H.      +E  E   E E E E E E E E
|----------------|-----------------||
|----------------|-----------------||

|-(2)------(2)---|---------------0-||
|----------------|-----------0-2---||
|----------------|-0---0-2-3-------||
|--------------0-|---4-------------||


  &
  Gtr IV
   W            +W               +H       H        W
|-------------|----------------|----------------|----------------------|
|-(9)---------|-(9)------------|-(9)r-----------|----------------------|
|-------------|----------------|----------------|----------------------|
|-------------|----------------|----------------|----------------------|
|-------------|----------------|----------------|----------------------|
|-------------|----------------|----------------|----------------------|
|
| Gtr II
|  H     H       H     E  Q.      Q    H     Q    +Q    Q    Q     Q
|-------------|--0-----0-(0)---|----------------|-------3--------------|
|--5-----5----|--2-----0h=2----|--2----2-----3--|-(3)---2----3-----3---|
|--6-----6----|--2-----2-(2)---|--0----0-----2--|-(2)--------2-----2---|
|--7-----6----|----------------|--0----0-----4--|-(4)-5---5-(5)-4------|
|--0----------|--------0-(0)---|-------------5--|-(5)------------------|
|--------4----|--2-------------|----------------|----------------------|
                                                   E  Q   E +E  Q.

  Gtr II
  H    E  Q.     H    E  Q.     Q  H    Q    +Q    Q    Q.   E
|--------------|-0----0-(0)---|-3--3----2--|-(2)---2----2-------||
|-5----5-(5)---|-2----0h=2----|-3--3----3--|-(3)---3----3-------||
|-6----4h=6----|-2----2-(2)---|-2--2----2--|-(2)---2----2-------||
|-7----6-(6)---|--------------|-0--0----0--|-(0)-0---0-(0)---0--||
|-0------------|------0-(0)---|------------|--------------------||
|------4-(4)---|-2------------|------------|--------------------||
                                             +E  Q   E +Q.   E
|-Clav Fig 1                                      end Clav Fig 1-|

w/Clav Fig 1 to end
Riff C x2


w/Riff C to end
 Outro - Guitar Solo
  Gtr IV
  H               Q           Q      a      +S   +E.     Q    a      +S   +E.     Q
|----------------------------17---|---------------------17-----------------------17---|
|---------------------------------|-17b19==(17)r(17)---(17)--17b19==(17)r(17)---(17)--|
|---------------------------------|---------------------------------------------------|
|---------------------------------|---------------------------------------------------|
|---------------------------------|---------------------------------------------------|
|---------------------------------|---------------------------------------------------|
|
| Gtr V
| Q   Q   a      +S   +E.     Q      a      +S   +E.     Q    a      +S   +E.    +Q
|----17----------------------17---|---------------------17----------------------------|
|--------17b19==(17)r(17)---(17)--|-17b19==(17)r(17)---(17)--17b19==(17)r(17)---(17)--|
|---------------------------------|---------------------------------------------------|
|---------------------------------|---------------------------------------------------|
|---------------------------------|---------------------------------------------------|
|---------------------------------|---------------------------------------------------|


   a      +S   +E.       +Q    a      +E   +E   Q     +W
|--------------------------------------------------|--------------|
|-17b19==(17)r(17)------(17)-----------------------|--------------|
|-----------------------------16b18==(16)r(16)-14--|-(14)---------|
|--------------------------------------------------|--------------|
|--------------------------------------------------|--------------|
|--------------------------------------------------|--------------|
|
|  a      +E        +E    H.                          +H     H
|--------------------------------------------------|--------------|
|--------------------------------------------------|--------------|
|-16b18==(16)r=====(16)--14------------------------|-(14)---------|
|--------------------------------------------------|--------------|
|--------------------------------------------------|--------------|
|--------------------------------------------------|--------------|


  W              W               H                       E   a      +E   +E.  S
|--------------|---------------|------------------------------------------------|
|--------------|---------------|------------------------------------------------|
|--------------|---------------|----------------------------16b18==(16)r(16)-14-|
|--------------|---------------|------------------------------------------------|
|--------------|---------------|------------------------------------------------|
|--------------|---------------|------------------------------------------------|
|
| W              W               E  a      +E   +E.  S  +H
|--------------|---------------|------------------------------------------------|
|--------------|---------------|------------------------------------------------|
|--------------|---------------|---16b18==(16)r(16)-14-(14)---------------------|
|--------------|---------------|------------------------------------------------|
|--------------|---------------|------------------------------------------------|
|--------------|---------------|------------------------------------------------|


   +H                     +E   a      +Q    +E
|------------------------------------------------||
|------------------------------------------------||
|-(14)-------------------(14)-16b18==(16)r=(16)--||
|------------------------------------------------||
|------------------------------------------------||
|------------------------------------------------||
|
|  +E   a      +Q    +E    H
|------------------------------------------------||
|------------------------------------------------||
|-(14)-16b18==(16)r=(16)--14---------------------||
|------------------------------------------------||
|------------------------------------------------||
|------------------------------------------------||


   H               E      +Q.       +H        H



|--------------------------------|-------------------|
|--------------------------------|-------------------|
|-14--------------16b18==(16)----|-(16)r-------------|
|--------------------------------|-------------------|
|--------------------------------|-------------------|
|--------------------------------|-------------------|
|
|  E      +Q.     +H                 H        H
|--------------------------------|-------------------|
|--------------------------------|-------------------|
|-16b18==(16)----(16)r-----------|-------------------|
|--------------------------------|-------------------|
|--------------------------------|-------------------|
|--------------------------------|-------------------|


  H                 Q  S     +S   E     H          E.S +E  E
|-----------------------------------|-------------------------|
|-----------------------------------|-------------------------|
|----------------------9b11==(9)r-9-|---7----------7S2-(2)----|
|-----------------------------------|-------------------------|
|-----------------------------------|-------------------------|
|-----------------------------------|-------------------------|
|
| Q    S     +S   E H                   E. S +E  E E.S +E  E
|-----------------------------------|-------------------------|
|-----------------------------------|-------------------------|
|------9b11==(9)r-9-7---------------|---7S=2-(2)---2S7-(7)----|
|-----------------------------------|-------------------------|
|-----------------------------------|-------------------------|
|-----------------------------------|-------------------------|


  E.        S +E  E E    +E   Q    +Q    H.
|--------------------------------|------------------|
|--------------------------------|------------------|
|-2S========7-(7)----------------|------------------|
|--------------------------------|------------------|
|-------------------7b9==(7)r-7--|-(7)---7----------|
|--------------------------------|------------------|
|
| E    +E      H              Q    +H        H
|--------------------------------|------------------|
|--------------------------------|------------------|
|--------------------------------|------------------|
|--------------------------------|------------------|
|-7b9==(7)r----7--------------7--|-(7)--------------|
|--------------------------------|------------------|


  H                S    +S   E q      S     +S   E q   S      +S    E  q
|---------------------------------|---------------------------------------|
|---------------------------------|---5b7===(5)r-5-3---8b10===(8)r--8--7--|
|------------------4b6==(4)r-4-2--|---------------------------------------|
|---------------------------------|---------------------------------------|
|---------------------------------|---------------------------------------|
|---------------------------------|---------------------------------------|
|
| S    +S   E  q   S    +S   E q      S     +S   E q   S      +S    E  q
|---------------------------------|---------------------------------------|
|------------------5b7==(5)r-5-3--|---8b10==(8)r-8-7--12b14==(12)r-12-10--|
|-4b6==(4)r-4--2------------------|---------------------------------------|
|---------------------------------|---------------------------------------|
|---------------------------------|---------------------------------------|
|---------------------------------|---------------------------------------|


     E      +Q.     +H          W
||----------------------------|---------------|
||o-12b14==(12)----(12)r------|---------------|
||----------------------------|---------------|
||----------------------------|---------------|
||o---------------------------|---------------|
||----------------------------|---------------|
|

|    E      +Q.     +H          W
||----------------------------|---------------|
||o-12b14==(12)----(12)r------|---------------|
||----------------------------|---------------|
||----------------------------|---------------|
||o---------------------------|---------------|
||----------------------------|---------------|


  H                S    +S   E q      S     +S   E q   S      +S    E  q
|---------------------------------|----------------------------------------||
|---------------------------------|---5b7===(5)r-5-3---8b10===(8)r--8--7--o||
|------------------4b6==(4)r-4-2--|----------------------------------------||
|---------------------------------|----------------------------------------||
|---------------------------------|---------------------------------------o||
|---------------------------------|----------------------------------------||
|
| S    +S   E  q   S    +S   E q      S     +S   E q   S      +S    E  q
|---------------------------------|----------------------------------------||
|------------------5b7==(5)r-5-3--|---8b10==(8)r-8-7--12b14==(12)r-12-10--o||
|-4b6==(4)r-4--2------------------|----------------------------------------||
|---------------------------------|----------------------------------------||
|---------------------------------|---------------------------------------o||
|---------------------------------|----------------------------------------||


   E      +Q.     +H          W
|---------------------------|---------------|
|-12b14==(12)----(12)r------|---------------|
|---------------------------|---------------|
|---------------------------|---------------|
|---------------------------|---------------|
|---------------------------|---------------|
|
|  E      +Q.     +H          W
|---------------------------|---------------|
|-12b14==(12)----(12)r------|---------------|
|---------------------------|---------------|
|---------------------------|---------------|
|---------------------------|---------------|
|---------------------------|---------------|


  H                    E  a      +Q.        E   Q.    H
|---------------------------------------|------------17------------------|
|------------------------17b19==(17)r---|--17--15------------------------|
|---------------------------------------|--------------------------------|
|---------------------------------------|--------------------------------|
|---------------------------------------|--------------------------------|
|---------------------------------------|--------------------------------|
|
| E  a      +Q.        E          Q.        H         S      +S    E  q
|---------------------------------------|--17----------------------------|
|---17b19==(17)r------17---------15-----|------------17b19==(17)r-17-15--|
|---------------------------------------|--------------------------------|
|---------------------------------------|--------------------------------|
|---------------------------------------|--------------------------------|
|---------------------------------------|--------------------------------|


   S      +S    E   q    E   Q.       +H       H
|----------------------------------|------------------|
|-17b19==(17)r-17--15---12--14-----|-(14)-------------|
|----------------------------------|------------------|
|----------------------------------|------------------|
|----------------------------------|------------------|
|----------------------------------|------------------|
|
|  E            Q.      +H             H       H
|----------------------------------|------------------|
|-12-----------14------(14)--------|------------------|
|----------------------------------|------------------|
|----------------------------------|------------------|
|----------------------------------|------------------|
|----------------------------------|------------------|


                                                  |-3--|  |-3--|
  H                    E a     +E     S e   S     Q  Q Q  Q Q  Q
|---------------------------------------------|---------------------|
|---------------------------------------------|--------8-------8----|
|------------------------9b11==(x)r-----9-----|---7--9----7-9-------|
|---------------------------------------------|---------------------|
|---------------------------------------------|---------------------|
|---------------------------------------------|---------------------|
|
|                      |--------3---------|       |-3--|  |-3--|
| E a     +E    S  e S Q            Q     Q       Q  Q Q  Q Q  Q
|---------------------------------------------|-------------7-------|
|-----------------------------------------8---|--------8-10---10----|
|---9b11==(x)r-----9---7------------9---------|---7--9--------------|
|---------------------------------------------|---------------------|
|---------------------------------------------|---------------------|
|---------------------------------------------|---------------------|


   |--3---|
   Q Q    Q H        +W                E  E      +Q    Q          S      +E.
|----7------9------|-(9)-------------|---------------------------12b14==(12)-|
|-10-----10--------|-----------------|---12pb14r(12)--10---------------------|
|------------------|-----------------|---------------------------------------|
|------------------|-----------------|---------------------------------------|
|------------------|-----------------|---------------------------------------|
|------------------|-----------------|---------------------------------------|
|
|  W                 +H       H        H               E  E      +Q
|--9---------------|-(9)-------------|---------------------------------------|
|------------------|-----------------|-------------------12pb14r(12)---------|
|------------------|-----------------|---------------------------------------|
|------------------|-----------------|---------------------------------------|
|------------------|-----------------|---------------------------------------|
|------------------|-----------------|---------------------------------------|


   +Q     Q            E    E  E      +E
|-(12)r--12---------------------------------|
|--------------------------10-12b14==(12)r--|
|---------------------11--------------------|
|-------------------------------------------|
|-------------------------------------------|
|-------------------------------------------|
|
|   Q     S      +E.  +Q       Q
|--------12b14==(12)-(12)r----12------------|
|--10---------------------------------------|
|-------------------------------------------|
|-------------------------------------------|
|-------------------------------------------|
|-------------------------------------------|


                                                  |-----3-----|  |----3-----|
   W                            +H       H        Q    Q      Q  Q    Q     Q
|----------------------------|------------------|---------------10--------------|
|-10-------------------------|-(10)-------------|-----10-----12------10----12---|
|----------------------------|------------------|-------------------------------|
|----------------------------|------------------|-------------------------------|
|----------------------------|------------------|-------------------------------|
|----------------------------|------------------|-------------------------------|
|
|  E  E  E      +E    H         +W                H              E E     E    E
|----------------------------|------------------|------------------9------------|
|----10-12b14==(12)r-10------|-(10)-------------|-----------------------12------|
|-11-------------------------|------------------|-------------------------------|
|----------------------------|------------------|-------------------------------|
|----------------------------|------------------|-------------------------------|
|----------------------------|------------------|-------------------------------|


    |------3------|     |--3---|    |----3-----|
    Q     Q       Q     E E    E    E    E     E

|--10-----9---------------9---10---12----9----10---|
|----------------12--------------------------------|
|--------------------------------------------------|
|--------------------------------------------------|
|--------------------------------------------------|
|--------------------------------------------------|
|
|   |-----------------10:8------------------|
|   E   E    E E     E  E   E    E     E    E
|---9--10---12-9----10------9----------------------|
|----------------------12-------------10---12------|
|--------------------------------------------------|
|--------------------------------------------------|
|--------------------------------------------------|
|--------------------------------------------------|


   |---3---| |--3--|   |--3--|
   E E     E E  E  E   Q     E  +Q      +H       H
|----9-------------------------------|------------------|
|-12-----------10-12---9----10-(10)--|-(10)-------------|
|------------------------------------|------------------|
|------------------------------------|------------------|
|------------------------------------|------------------|
|------------------------------------|------------------|
|
|
|  E    Q.            +H                 W
|------------------------------------|------------------|
|--9---10------------(10)------------|------------------|
|------------------------------------|------------------|
|------------------------------------|------------------|
|------------------------------------|------------------|
|------------------------------------|------------------|

   H                       S      +E            S  E     E
|----------------------------------------------------------|
|----------------------------------------------------------|
|-------------------------16b18==(16)r------------16----14-|
|----------------------------------------------------------|
|----------------------------------------------------------|
|----------------------------------------------------------|
|
|                          |------------3-------------|
|  S      +E     S  E   E  E            +E    Q       Q
|----------------------------------------------------------|
|-------------------------17b19========(17)r-17------15----|
|-16b18==(16)r-----16--14----------------------------------|
|----------------------------------------------------------|
|----------------------------------------------------------|
|----------------------------------------------------------|

    |-----------3------------|
    E      +E          Q     Q  E      +E    Q              E  E  E      +E    H
|------------------------------17b19==(17)r-17-----------|------------------------------*|
|--17b19==(17)r-------17----15---------------------------|------------------------------*|
|--------------------------------------------------------|-------16b18==(16)r-14--------*|
|--------------------------------------------------------|-14-16------------------------*|
|--------------------------------------------------------|------------------------------*|
|--------------------------------------------------------|------------------------------*|
|
|   E            +E       Q     E       E    E      +E      W
|--17b19========(17)r----17------------------------------|------------------------------*|
|--------------------------------------------------------|------------------------------*|
|-------------------------------------------16b18==(16)r-|-14---------------------------*|
|------------------------------14------16----------------|------------------------------*|
|--------------------------------------------------------|------------------------------*|
|--------------------------------------------------------|------------------------------*|

END

+--------------------------------------------------------------------------+
| This file is the author's own work and represents their interpretation   |
| of the song. You may only use this file for private study, scholarship,  |

| or research.                                                             |
+--------------------------------------------------------------------------+



Important: The song above is NOT stored on the Chordie server. The original song is hosted at www.ultimate-guitar.com. Chordie works as a search engine and provides on-the-fly formatting. Chordie does not index songs against artists/composers will. To remove this song please click here.

This song is displayed as text-only. Transposing and tuning is only available for chordpro-songs.

Login - add to songbook

Rating click stars to rate

Layout
Accuracy

SHARE PAGE  

You need to log in to post comments