E----------------------------------------------------------------------------------|

B'-------------------5--------------------------------------5---5---5--------------|

G--------------4---4-- ---4/2---2--x--2--x--2--------4---4---4---(4)---4/2---------|

D'----------2----------------------2--x--2--x--2-----------------------------4/2---|

A-------0--------------0------------------------------0----------------------------|

E---/5-----------------------------------------------------------------------------|

E----------------------------------------------------------------------------------|

B-----------------------------5----5--5--------------------------------------------|

G---2---------------4----4--4----4/2--4/2---------------2-2---------(4)-2--2----4--|

D---------2-------------------------------------4/2-----2-2------(2)----2--2-------|

A-0h2p0--------0--0--0-------------------------------'----------(0)--------(0)-----|

E----------------------------------------------------------------------------------|

E---------------<12>ring-------------------------------------------------------|            

B--------5---------------------------------------------------------------------|            

G---------4/2------2--2-------------2--------2--------2--------2---------------|            

D-2-------4/2------2-----2---2---2---2---2---2---2---2----2---2----------------|  then Verse

A----------0--------0-------------0----------0--------0--------0----------0-0--|            

E------------------------------------------------------------------------------|            

---------------------------------------------------------------|r

-----------5-----5-----------------------5---------------------|e

--------4-----4----4---4/2--------4-------5--------------------|p or

-----2---------------------2-----2-----------------------------|e

--0---------0--------0-------0-------0-------0--0--------------|a

---------------------------------------------------------------|t


 EsusA
 You know that we take away 
 EsusEsus
 We de-liver to 
 EsusA
 Open 24 hours Babe 
 EsusA
 Just waiting on a call from you
 EsusA
 Waiting on a call from you~~~
---------------------------------------------------------------|r
-----------5-----5-----------------------5---------------------|e
--------4-----4----4---4/2--------4-------5------2-------------|p
-----2---------------------2-----2---------------2-------------|e
--0---------0--------0-------0-------0-------0-------0---------|a
---------------------------------------------------------------|t

Same
Well im in the yellow page
You just take a look
Look me up under services
Ya know its just an o-pen book
Babe its just an o-pen book~~~~ yeah
Its just an open book
But Baby
 F#/GbmG#/AbmAm
 Any minute any hour 
Im waiting on a call from you
And you know this heart is constant
Im your lover baby thru and thru and thru
 F#Em
E'--------------------------0----------------------------|
B'--------------------------0----------------------------|
G--------------------------0-----------------------------|
D--4------4---4-----'4---2-------------------------------|
A--4------4---4-----'4---2-------------------------------|
E--2p0--'2---2p0--2---0----------------------------------|

Lover baby thru and thru
 MmmmmBmmmmm
 Ooooooh
E'--------------------------0----------------------------|
B'--------------------------0----------------------------|
G--------------------------0-----------------------------|
D--4------4---4-----'4---2-------------------------------|
A--4------4---4-----'4---2-------------------------------|
E--2p0--'2---2p0--2---0----------------------------------|

I only found out yesterday
I heard it on the news
What i heard really pissed me off
Cause now i got those fucking blues
Yeah I got those awesome Blues
Babe I got those nothing blues
But
Any minute any hour
Im waiting on a call from you
And you know this heart is constant babe
Im your lover baby through and through
Your lover baby thru and thru
ooooh ooooh ooooh
haaaa haaaa haaaa
yeah ooo
you know that we do take away
we deliver too
were open 24 hours baby
waiting on on a call from you
waiting on a call from you
ooooh any minute any hour
waiting on a call from you
Solo-
E'--------------------------0---------------------------------------------------------------|
B'--------------------------0---------------------------------------------------------------|
G--------------------------0--------/9~~------------------------/11-----9~~---6--5--4--2-/4-|
D--4------4---4-----'4---2-----------------4~~--4~~--(4)-------11---------------------------|
A--4------4---4-----'4---2------------------------------------------------------------------|
E--2p0--'2---2p0--2---0---------------------------------------------------------------------|
E'---------------------------------------------------------------|
B'----/5------------------------------10h12-14h15-17h19--19--19--|
G------------------9h11------------------------------------------|very end
D---2/4---9h11---------------------------------------------------|
A----------------------------------------------------------------|
E----------------------------------------------------------------|        

Just figure out where to put the solo to the music , it not all one solo
But any way this is a good version for this song , as we lacked a good one before.
Ben lyon
Blyon


A Am Em Esus F#
variations - click chord images
Transpose chords:
Tuning:
Cool service:
View: Size:
A  A  A
Rating:
Layout:
  • Currently 0/5 Stars.
  • 1
  • 2
  • 3
  • 4
  • 5
 
Accuracy:
  • Currently 0/5 Stars.
  • 1
  • 2
  • 3
  • 4
  • 5
 
click stars to rate
Chordie recommends:
Check out JamPlay.com for online video guitar lessons
Songbook:
Login to add this song to your songbook
Support the artist
Preview/buy this song
MSN Music
Why this non-profit ad?

 
login to add comments/video/corrections