eToCache5 = ""; ?> insertsongandartist - guitar chords, guitar tabs and lyrics - chordie

1921

Who





 INTRO
| C | G/B | C/Bb| C/A | C/Ab | C/G |
|----------------------|-----|-----|-5---|------|-----|
|-5--------------------|-----|-----|-5---|-5----|-5---|
|-5--------------------|-5---|-5---|-5---|-5----|-5---|
|-5--------------------|-5---|-5---|-5---|-5----|-5---|
|----------------------|-----|-----|-----|------|-3---|
|-8--------------------|-7---|-6---|-5---|-4----|-3---|

 piano arr for bass; from stage versions
| 
|-9-10-12-10-9-10-12-10|-----|-----|-----|------|-----|
|----------------------|--%--|--%--|--%--|--%---|--%--|
|----------------------|-----|-----|-----|------|-----|
|----------------------|-----|-----|-----|------|-----|


|Dsus4/F# | Gsus4 | G |
|--------------------|-3-----3--|-3-3--3---|
|--------------------|-3-----3--|-3-3--3---|
|--------------------|-5-----5--|-5-5--4---|
|-5-------5--5-------|-5-----5--|-5-5--5---|
|-5-------5--5----0--|----------|----------|
|-2-------2--2------2|-3---3-3--|-3-3--3---|

| |
|11-12-14-12-11-12-14|-12-------|----------|
|--------------------|-----5-5--|-5-5--5-5-|
|--------------------|---------5|----------|
|--------------------|----------|----------|


 VERSE pattern
Gsus4 | G x2
--||------3-------3--|-----3-------3---||
--||----3---3---3---3|---3---3---3---3-||
--||.-5-------5------|-4-------4------.||
-5||.----------------|----------------.||
--||-----------------|-----------------||
--||-----------------|-----------------||


Gsus4 G |Gsus4 G |
Got a feeling twenty-one is gonna be a good year
Gsus4 G |Gsus4 G |
Especially if you and me see it in together.
Eb Bbsus4 Bb |Eb Bbsus4 Bb |
So you think twenty-one is gonna be a good year
Eb Bbsus4 Bb |Eb Eb Eb/D |
Could be good for me and her but you and her, no never.

 CmCmaj/min7Cmin7Cmin/maj6
    I had no reason to be over-optimistic         but
|-8--------|-8-------------------|-8-------|-8------|
|-8--------|-8-------------------|-8-------|-8------|
|-8---/----|-8------------/------|-8-----/-|-8--/---|
|-10-------|-9-------------------|-8-------|-7------|
|----------|---------------------|---------|--------|
|----------|---------------------|---------|--------|

 on stage Pete plays:
|                             |
A-3--------|-2-------------------|-1-------|-0------|


 Abmaj7Bbsus4BbGsus4G
Somehow when you smile I can brave bad weather.
|8---------------|--------------------|-6------6---|3-------3-------|
|8---------------|--------------------|-6------6---|3-------3-------|
|8-------/-------|-/----------/-------|-8---/--7-/-|5-/-/-/-4---/-/-|
|6---------------|--------------------|-8------8---|5-------5-------|
|----------------|--------------------|------------|----------------|
|----------------|--------------------|-6T-----6T--|3T------3T------|


 GC/GG7C/G
   What about the boy?   What about the boy?

 GC/GG7GC
   What about the boy he saw it all.      

 CBORUS
 FD7/F#
You didn't hear it. You didn't see it. You won't say
         |-1------------------|-2-------------------|
         |-1------------------|-1-------------------|
         |-2----/-------------|-2--/----------------|
         |-3------------------|-0-------------------|
         |-3------------------|---------------------|
         |-1T-----------------|-2T------------------|


 GE7/Ab
  nothing to no one never in your life. You never
|-3---------------|-4-------------------------|
|-3---------------|-3-------------------------|
|-4----------/----|-4-------------/-----------|
|-5---------------|-0-------------------------|
|-5---------------|---------------------------|
|-3T--------------|-4T------------------------|


 AmC7/BbBbF
  heard it. How absurd it all seems without any proof
|-5-------------|(6)-----------------|
|-5-------------|-5------------------|
|-5-----/-------|-5-----------/------|
|-7-------------|-5------------------|
|-7-------------|--------------------|
|-5-------------|-6------------------|


 FD7/F#
You didn't hear it. You didn't see it.
 GE7/Ab
You never heard it, not a word of it.
 AmC7/Bb
You won't say nothing to no one. Never tell a soul
 BbFC/GG7
What you know is the truth.            

|Gsus4 G |Gsus4 G |
Got a feeling twenty-one is gonna be a good year
|---------3--------------------3----------|
|------3----3----------------3---3--------|
|---5----------5------5----4-------4----4-|
|-5---------------5------5------------5---|
|-----------------------------------------|
|-----------------------------------------|


Gsus4 G |Gsus4 G |
Especially if you and me see it in together.

|Eb(sus2) Bbsus4 Bb |Eb(sus2) Bbsus4 Bb |
Got a feeling twenty-one is gonna be a good year
|---------6---------------------6---------|
|-------6----6---------------6----6-------|
|---8-----------8----8-----7--------7---7-|
|-8---------------8------8------------8---|
|-----------------------------------------|
|-----------------------------------------|


Eb(sus2) Bbsus4 Bb |Eb Eb Eb/D |
Especially if you and me see it in together.

Cm Cmaj/min7 |Cmin7 Cmin/maj6
I had no reason to be over-optimistic
|Abmaj7 |Bbsus4 | Bb |
But somehow when you smiled I could brave bad weather

 OUTRO
Eb Absus4/Eb Abm/Eb x4 Eb
What about the boy?
||--3----------|----4---------4---||
||--4----------|----4---------4---||
||.-3----------|----6---------4--.||
||.-5----------|----6---------6--.||
||-------------|------------------||
||-------------|------------------||


 note: for stage versions, tbe Eb is played at tbe 6tb position:
|-----------|
|-----------|
|-7/8-------|
|-7/8-------|
|-5/6-------|
|-----------|


END

+--------------------------------------------------------------------------+

| This file is the author's own work and represents their interpretation |
| of the song. You may only use this file for private study, scholarship, |
| or research. |
+--------------------------------------------------------------------------+


Ultimate-Guitar.Com © 2005