eToCache5 = ""; ?> Feels So Good by Chuck Mangione - guitar chords, guitar tabs and lyrics - chordie

Feels So Good

Chuck Mangione


| Ultimate Guitar Tabs Archive - your #1 source for tabs! | | http://www.ultimate-guitar.com/ | | | | Over 150,000 of guitar, guitar pro and bass tabs! Also lessons, news, | | columns and guitar forums! |
Artist: Chuck Mangione Song: Feels So Good
Feels So Good.btab Chuck Mangione TablEdited by Poppamies Tuning : E A D G Time Signature: 4/4
| | | | | | | | |--------------------------------|----------------------------5---| |------5-5-------------5-5-------|------5-5-------------5-5-------| |3-------------3-----------------|3-------------3-----------------| |----------------------------3---|--------------------------------|
| | | | | | | | |--------------------------------|----------------------------5---| |------5-5-------------5-5-------|------5-5-------------5-5-------| |3-------------3-----------------|3-------------3-----------------| |----------------------------3---|--------------------------------|
| | | | | | | | |--------------------------------|--------------------------------| |------5-5-------------5-5-------|------5-5-------------5-5-------| |3-------------3-----------------|3-------------3-----------------| |----------------------------3---|----------------------------3---|
| | | | | | | | |----------------------------5---|----------------5---------------| |------5-5-------------5-5-------|--------------------------------|
|3-------------3-----------------|3---------------------------3---| |--------------------------------|--------------------------------|
| | | | | | | | |--------------------------------|--------------------------------| |3---------------3-------2-------|0---------------0---------------| |--------------3-----------------|--------------0-----------------| |--------------------------------|----------------------0-1---2---|
| | | | | | | | |----------------0---------------|--------------5-3-----3-5-----2-| |--------------0---------0-------|------------5-------------------| |----------------------0---------|3-------------------------------| |3---------------------------3---|--------------------------------|
| | | | | | | | |--------------------------------|----------------7---------------| |--------------------------------|--------------7---------7-------| |--------------0-0-----2-3---4---|5---------------------5-----5---| |--------------------------------|--------------------------------|
| | | | | | | | |--------------------------------|--------------------------------| |5---------------5-------3---3---|----------and so on-------------| |--------------5-------5---------|--------------------------------| |--------------------------------|--------------------------------| Transcribe! 6.0 transcription http://www.seventhstring.demon.co.uk/ Created with TablEdit http://www.tabledit.com/ http://www.geocities.com/jani_bjorklund/janis.html
END
+--------------------------------------------------------------------------+ | This file is the author's own work and represents their interpretation | | of the song. You may only use this file for private study, scholarship, | | or research. | +--------------------------------------------------------------------------+
Ultimate-Guitar.Com © 2005



























variations - click chord images
Transpose chords:
Tuning:
Cool service:
View: Size:
A  A  A
Rating:
Layout:
  • Currently 0/5 Stars.
  • 1
  • 2
  • 3
  • 4
  • 5
 
Accuracy:
  • Currently 5/5 Stars.
  • 1
  • 2
  • 3
  • 4
  • 5
 
click stars to rate
Chordie recommends:
Get acoustic guitar lessons and electric guitar lessons at JamPlay.com
Songbook:
Login to add this song to your songbook
Support the artist
Preview/buy this song
MSN Music
Why this non-profit ad?

 
login to add comments/video/corrections