""; ?> When Youre Gone by Cranberries - guitar chords, guitar tabs and lyrics - chordie

When Youre Gone

Cranberries

 C
1-|---0------------------------
2-|---------1------------------
3-|---------------0------------  x4
4-|-----------------------------
5-|-----------------------------
6-|-----------------------------

 Am
1-|---0-----------------------
2-|----------1-----------------
3-|----------------2-----------   x4
4-|-----------------------------
5-|-----------------------------
6-|----------------------------

 Em
1-|---0------------------------
2-|---------0------------------
3-|---------------0------------   x4
4-|-----------------------------
5-|-----------------------------
6-|-----------------------------

 G
1-|---3------------------------
2-|---------0------------------
3-|---------------0------------  x4
4-|-----------------------------
5-|-----------------------------
6-|-----------------------------

You begin to play full chords in the first verse as follows:
 /C/Am/Em/G
---------Another Version:
-------------------------

When You're Gone by the Cranberries
transcribed by Oscar Canonizado (ocanoniz@hotmail.com)
Verse:
 CAmEm
E-0-----0-----0-----0-----|0-----0-----0-----0-----|0-----0-----0-----0-----|
B---1-----1-----1-----1---|--1-----1-----1-----1---|--0-----0-----0-----0---|
G-----0-----0-----0-----0-|----2-----2-----2-----2-|----0-----0-----0-----0-|
D-------------------------|------------------------|------------------------|
A-------------------------|------------------------|------------------------|
E-------------------------|------------------------|------------------------|

 G

E-3-----3-----3-----3-----|
B---0-----0-----0-----0---|
G-----0-----0-----0-----0-|
D-------------------------|
A-------------------------|
E-------------------------|

Chorus:
These chords are strummed:
C X32010
Am X02210
Em 022000
 F133211
           Play this during solo:
 CAmEm
E-0-----0-----0-----0-----|0-----0-----0-----0-----|0-----0-----0-----0-----|
B---1-----1-----1-----1---|--1-----1-----1-----1---|--0-----0-----0-----0---|
G-----0-----0-----0-----0-|----2-----2-----2-----2-|----0-----0-----0-----0-|
D-------------------------|------------------------|------------------------|
A-------------------------|------------------------|------------------------|
E-------------------------|------------------------|------------------------|

 F
E-1-----1-----1-----1-----|
B---1-----1-----1-----1---|
G-----2-----2-----2-----2-|
D-------------------------|
A-------------------------|
E-------------------------|

(Verse)
 CAm
 Hold on to love
 Em
That is what I do
 G
Now that I've found you
 CAm
 And from above
 Em
Everything's stinking
 G
They're not around you
 C
And in the night
 Am
I could be helpless
 EmG
I could be lonely, sleeping without you
 CAm
And in the day, everything's complex
 EmG
There's nothing simple when I'm not around you
(Chorus)
 CAm
But I miss you when you're gone
 EmF
That is what I do 
Hey baby
 CAm
 It's hard to carry on
 EmF
That is what I knew 
Hey baby...
(guitar solo part, which I haven't figured out yet, if someone could please post it :)
(Verse)
 CAm
 Hold on to my hands
 Em
I feel I'm sinking
 G
Sinking without you
 CAm
 And to my mind
 Em
Everything's stinking
 G
Stinking without you
 CAm
And in the night I could be helpless
 EmG
I could be lonely, sleeping without you
 CAm
And in the day, everything's complex
 Em
There's nothing simple
 G
When I'm not around you
(Chorus)
 CAm
And I miss you when you're gone
 EmF
That is what I do 
Hey baby
 CAm
 And it's hard to carry on
 EmF
That is what I do 
Hey baby...

"When You're Gone"
CRANBERRIES
To The Faithful Departed
At last i found it!!!!The cranberries 3rd track in the departed
album.Quite simple as it has just one main riff throughout the song.
I think it sounds right.I don't know about tunings and stuff.I just look
for the notes.Check it out.
Use fingers for the main riff.A pick is ok, but not recommended.
main riff:
-clean acoustic-
throughout
1|-----3----3----3----3-------3----3----3----3---------------|
2|-------4----4----4----4-------4----4----4----4-------------|
3|---------3----3----3----3-------5----5----5----5-----------|
4|-----------------------------------------------------------|
5|-----------------------------------------------------------|
6|-----------------------------------------------------------|
1|-----3----3----3----3-------6----6----6----6---------------|
2|-------3----3----3----3-------6----6----6----6-------------|
3|---------3----3----3----3-------7----7----7----7-----------|
4|-----------------------------------------------------------|
5|-----------------------------------------------------------|
6|-----------------------------------------------------------|

Add the fill just before the main riff somewhere near the verse.
Hear the song and look where.
fill 1:
b=bend

1|-----------------|
2|-----------------|
3|-------7b---8----|
4|-----------------|
5|-----------------|
6|-----------------|

I think this uses a tremolo bar or a floyd.I tried a wah with an
electric but an acoustic???A point to ponder.....
fill 2:
(=push down bar/floyd/rock wah/vibrato/whatever....
1|----3(----3(----3(----6(-----|
2|----4(----4(----3(----6(-----|
3|----3(----5(----3(----7(-----|
4|-----------------------------|
5|-----------------------------|
6|-----------------------------|

Quite a simple solo.Don't expect any hammer-on pull-off skills here.
This ain't metallica or soundgarden.
solo:
~=vibrato
1|------------------------------------------------|
2|------------------------------------------------|
3|--8----6----8-----8---6---4------3----4----3----|
4|------------------------------------------------|
5|------------------------------------------------|
6|------------------------------------------------|
1|------------------------------------------------|
2|------------------------------------------------|
3|--3---4---3-----------------------------8-------|
4|--------------3~~---3---5---7---8---10----------|
5|------------------------------------------------|
6|------------------------------------------------|


END

+--------------------------------------------------------------------------+

| This file is the author's own work and represents their interpretation |
| of the song. You may only use this file for private study, scholarship, |
| or research. |
+--------------------------------------------------------------------------+


Ultimate-Guitar.Com © 2005


Am C Em F G
variations - click chord images
Transpose chords:
Tuning:
Cool service:
View: Size:
A  A  A
Rating:
Layout:
  • Currently 0/5 Stars.
  • 1
  • 2
  • 3
  • 4
  • 5
 
Accuracy:
  • Currently 0/5 Stars.
  • 1
  • 2
  • 3
  • 4
  • 5
 
click stars to rate
Chordie recommends:
Get acoustic guitar lessons and electric guitar lessons at JamPlay.com
Songbook:
Login to add this song to your songbook
Support the artist
Preview/buy this song
MSN Music
Why this non-profit ad?

 
login to add comments/video/corrections