Mother Earth

Within Temptation





-------------------------------------------------






 Cbord: EADGBE'

A : 577655 A/C# : x42220 A/E : 002220 Amaj7 : x02120

Bm : x24432 B#dim : x34242

C# : x46664 C#m : x46654 C#sus4: x46674

E : 022100

F# : 244322 F#m/C# : x44765 F#7 : 242322 F#sus4: 244422

G# : 466544

Intro:

 C#m(5A5E(5C#mA5F#(5
E|-|--9----11-12---11-12-11-9----------|--9----11-12---11-12-11-9--16---14-|(up: flute)
B|4|---------------------------12---12-|---------------------------9----7--|
G|/|o-6----8--9----8--9--8--6----------|--6----8--9----8--9--8--6----------|(down: Violin)
D|4|o--------------------------9----9--|-----------------------------------|
A|-|-----------------------------------|-----------------------------------|
E|-|-----------------------------------|-----------------------------------|

| C#m(5) A(5) E(5) C#m(5) A(5) F#(5) |

E|-|-----------------------------------|-----------------------------------|
B|4|-----------------------------------|-----------------------------------|
G|/|o-------6--------------------------|--------6--------------------------|Piano
D|4|o----6---------------2----------2--|-----6----------------2---------4--|
A|-|--4---------------0----------2-----|--4----------------0----------4----|
E|-|--------------------------0--------|---------------------------2-------|


 C#m(5A5E(5F#(5G#(5C#m(5
E|-|--9----11-12---11-12-14p12p11------------|--14-12-11-12-11------------||(up: flute)
B|4|---------------------------------12---12-|--7--------------14---------||
G|/|--6----8--9----8--9--8--6----------------|-----9--8--9--8--6---------o||(down: Violin)
D|4|---------------------------------9----9--|---------------------------o||
A|-|-----------------------------------------|----------------------------||
E|-|-----------------------------------------|----------------------------||

| C#m(5) A(5) E(5) F#(5) G#(5) C#m(5)
E|-|-----------------------------------------|----------------------------||
B|4|-----------------------------------------|----------------------------||
G|/|--------6--------------------------------|---------------------------o||piano
D|4|-----6---------------2-----------------2-|--------4--------6---------o||
A|-|--4---------------0-----------------2----|-----4--------6-------4--4--||
E|-|---------------------------------0-------|--2--------4----------------||


(Riff A)
 C#5E5C#5
      d  d u d u d  d u d u d  d u d u d d  d  d  etc.
E|-|---------------------------------------------|------------------------------------------|
B|4|---------------------------------------------|------------------------------------------|
G|/|o--------------------------------------------|------------------------------------------|
D|4|o-6----------6----------6--------------------|--6----------6----------6-----------------|
A|-|--4--4-4-4-4-4--4-4-4-4-4--4-4-4-4-2-2--2--2-|--4--4-4-4-4-4--4-4-4-4-4--4--4--7--6-----|
E|-|-----------------------------------0-0--0--0-|---------------------------------------7--|


 C#5E5F#ED#G#
---------------------------------------------|----------------------------------||
---------------------------------------------|----------------------------------||
---------------------------------------------|--------------------------1----1-o||
--6----------6----------6--------------------|--4----4--2----2--1----1--1----1-o||
--4--4-4-4-4-4--4-4-4-4-4--4-4-4-4-2-2--2--2-|--4----4--2----2--1----1----------||
-----------------------------------0-0--0--0-|----------------------------------||


 AA/C#A/EAmaj7
E||------------------------------|------------------------------||
B||------------------------------|------------------------------||
G||------------------------------|----------------1----1--1--1--||
D||------------------------------|--2----2--2--2----------------||
A||--0----0--0--0--4----4--4--4--|------------------------------||
E||------------------------------|------------------------------||


 Repeat intro 1x

(Riff B)
 C#5A5E5B5
                Birds and  butterfli--ies                 Ri- vers   and mountains  she   cre-
E||---------------------------------------------|--------------------------------------------|
B||---------------------------------------------|--------------------------------------------|
G||---------------------------------------------|--------------------------------------------|
D||--6----------6----------6----------6------6--|--2----------2------2--------------4--4--4--|
A||--4--4-4-4-4-4--4-4-4-4-4--4-4-4-4-4--4-4-4--|--0--0-0-0-0-0--0-0-0---2----------2--2--2--|
E||---------------------------------------------|------------------------0--0-0-0-0----------|


C#5 D#m (no5) G# (no5)
ates But you'll never know The next move she'll make
 ddududdududduddudd
--------------------------------------------|--------------------------------------------------||
--------------------------------------------|--------------------------------------------------||
--------------------------------------------|--------------------------------------------------||
--6----------6---------------------------6--|--4------4------4----4----6------6------6----6----||
--4--4-4-4-4-4--4-4-4-4-6--6-6-7--7-7-6--4--|--6------6------6----6----3------3------3----3----||
--------------------------------------------|--------------------------------------------------||


 2nd Couplet using Riff B
 :
 C#5
    You can try

 A5E5B5C#
    But it is useless to ask why

Cannot control her
D#m(no5) G#(no5)
She goes her own way

 Cborus
 (Riff C)
 C#5G#5B5F#5
              She  ruuuuuuuuuuuuuuuuuuuuuuuuuuuuuuuuuuuuuuules
E||------------------------------|------------------------------|
B||------------------------------|------------------------------|
G||o-----------------------------|------------------------------|
D||o----------6------------------|-----------4------------------|
A||--4--4--4--4-------------6----|--2--2--2--2-------------4----|
E||----------------4--4--4--4----|----------------2--2--2--2----|


 F#5C#5C#5D#5G#
    until the end of time   She   gives and she takes|1|
-----------------------|-----------------------------|-|
-----------------------|-----------------------------|-|First end
-----------------------|----------------------------o|-|
-----------------------|------------------------6---o|-|
--4-----------4--------|--4--4-4--6--6-6--------6----|-|
--2-----------4--------|--4--4-4--6--6-6--------4----|-|


 F#5C#5G#5C#5
    until the end of time    She goes her own way  |2|
-----------------------|---------------------------|-|
-----------------------|---------------------------|-|Second end
-----------------------|--------------------------o|-|
-----------------------|---------5------------6---o|-|
--4-----------4--------|--6------3------------4----|-|
--2-----------4--------|--4------------------------|-|


 F#5C#5C#5F#5C#5
    until the end of time    She goes her own way  |3|
-----------------------|---------------------------|-|
-----------------------|---------------------------|-|Third end (second chorus)
-----------------------|--------------------------o|-|
-----------------------|---------4--4-4-------6---o|-|
--4-----------4--------|--4--4-4-4--4-4-------4----|-|
--2-----------4--------|--4--4-4-------------------|-|


 3rd Couplet following Riff B
 C#5
    With every breath
 A5E5B5C#5
    And all the choices that we make
D#m(no5) G5(no5)
We are only passing through on her way
 C#5
    I find my strength
 A5E5B5C#5
    Believing that your soul lives on

Until the end of time
D#m(no5) G#(no5)
I'll carry it with me

 Second Cborus following Riff C(witb Tbird end

Intro 1x

C#m (6/4 time signature!!!)

 Back to (4/4

 B#dimC#m
 Once you will know my dear
 C#F#m/C#
 You don't have to fear

 DC#sus4B#dimC#sus4C#
 A new beginning always starts at the end     
 C#F#sus4F#m
 Once you will know my dear
 F#7Bm
 You don't have to fear

 F#m/C#C#m
   Until the end of time
 F#m/C#C#m
   Until the end of time
 F#m/C#C#m
   Until the end of time
 B#dimC#m
   She goes her own way

 Riff A

 Cborus
 C#5G#5B5F#5
              She  ruuuuuuuuuuuuuuuuuuuuuuuuuuuuuuuuuuuuuuules
E||------------------------------|------------------------------|
B||------------------------------|------------------------------|
G||o-----------------------------|------------------------------|
D||o----------6------------------|-----------4------------------|
A||--4--4--4--4-------------6----|--2--2--2--2-------------4----|
E||----------------4--4--4--4----|----------------2--2--2--2----|


 F#5C#5C#5D#5G#
    until the end of time   She   gives and she takes|1|
-----------------------|-----------------------------|-|
-----------------------|-----------------------------|-|First end
-----------------------|----------------------------o|-|
-----------------------|------------------------6---o|-|
--4-----------4--------|--4--4-4--6--6-6--------6----|-|
--2-----------4--------|--4--4-4--6--6-6--------4----|-|


 second end
 C#5
         un  til  the   end    of  time
------------------------------------------------|
------------------------------------------------|
o----------------------------------------------o|play 3x
o----------------------------------------------o|
--4----------4----------4----------7--6---------|
--4--4-4-4-4-4--4-4-4-4-4--4-4-4-4-------7------|


 A5G#5C#m
   She goes her own way

 duuuduuuduuuddd
---------------------------------------------------|---|
---------------------------------------------------|---|
---------------------------------------------------|---|
--6-----------6-----------6------------------------|-6-|
--4-4---4---4-4-4---4---4-4-4---4---4-7--6---------|-4-|
--------------------------------------------7------|---|


Hope you like it :)

Any comments:

le_mystique_1 AT hotmail DOT com

END

+--------------------------------------------------------------------------+

| This file is the author's own work and represents their interpretation |
| of the song. You may only use this file for private study, scholarship, |
| or research. |
+--------------------------------------------------------------------------+


Ultimate-Guitar.Com © 2005