Chordie logo

Curses   Bullet For My Valentine



| Ultimate Guitar Tabs Archive - your #1 source for tabs!               |
| http://www.ultimate-guitar.com/                                       |
|                                                                       |
| Over 200,000 guitar, guitar pro and bass tabs! Also lessons, news,    |
| columns and guitar forums!                                            |


Artist: Bullet For My Valentine
Song: Curses


Bullet For My Valentine - Curses
Bullet For My Valentine EP (2004)
Tuning (Low to High) C G C F A D

This Tab is about 90% Correct, there are a few bits in the choruses which I may not
have nailed, but it sounds right to me, so enjoy!
	/..........Slide
	*..........Pinched Harmonic
	h..........Hammer On
	p..........Pull Off
	.  ........Palm Mute
	x..........Mute

Intro/verse 1 Guitar 1 (clean)
D|----------------------------------------------------------------------------|
A|----------------------------------------------------------------------------|
F|-----10-------10----9------9----9----9h10------10-------10----99-12----9----|
C|--10----10-------10---10-----10---10--------10----10---10---10----1010---10-|
G|-----------8-------------8---------------------------8-------------8--------|
C|8-----------------------------------------8---------------------------------|
									x3
D|----------------------------------------------------------------------------|
A|----------------------------------------------------------------------------|
F|-----10-------10----9------9----9----9h10------7-----9---10-12-14---4/10----|
C|--10----10-------10---10-----10---10---------7-----7------------------------|
G|-----------8-------------8-----------------0-----0-----0----0----0-0----0---|
C|0---------------------------------------------------------------------------|

D|--------------------------------------------------|
A|--------------------------------------------------|
F|-----10-------10----9------------10-------10----12|
C|--10----10-------10-----------10----10-------10---|
G|-----------8---------------------------8----------|
C|8---------------------------8---------------------|

Chorus 1 Guitar 1 (Clean)
D|-------1-------1-------------------------1-------1-------------------|
A|-----3----3-------3---3--------3-------3----3-------3---3--------3---|
F|---2--------2-------2------------2---2--------2-------2------------2-|
C|---------------------------------------------------------------------|
G|-------------------------0h1-------------------------------0h1-------|
C|0---------------------------------0----------------------------------|
							x2
D|-------0--------0--------0-------------------------|
A|-----1-----1--------1------1---1-------------------|
F|---0---------0--------0------0-------2h5p2---------|
G|---------------------------------------------------|
C|3---------------------------------0----------------|
D|--------------------------------------------3----/5|
	     x7 (I think)
D|------|--------------|
A|------|--------------|
F|------|10------9-----|
C|----10|---10-----10--|
G|--8---|------8------8|
C|0-----|--------------|

Guitar 2 (distorted)






D|-----|
A|-----|
F|-----|
C|0-0-0|
G|0-0-0|
C|0-0-0|
  . .

Verse 2 Guitars 1 and 2 (distorted)
D|---------------------------------------------------------|
A|---------------------------------------------------------|
F|101010--------10x-10------101010--------10x-10--10/12-12-|
C|101010-x-x-x--10x-10x-x-x-101010-x-x-x--10x-10--10/12-12-|
G|8-8-8--x-x-x--8-x-8-x-x-x-8-8-8--x-x-x--8-x-8---8/-10-10-|
C|---------------------------------------------------------|
							x2
D|---------------------------------------------------|
A|---------------------------------------------------|
F|7-7-7---------7---7-------7-7-7---------7---7------|
C|7-7-7--x-x-x--7-x-7-x-x-x-7-7-7--x-x-x--7-x-7-x-x-x|
G|5-5-5--x-x-x--5-x-5-x-x-x-5-5-5--x-x-x--5-x-5-x-x-x|
C|0-0-0--x-x-x--0-x-0-x-x-x-0-0-0--x-x-x--0-x-0-x-x-x|

D|---------------------------------------------------------|
A|---------------------------------------------------------|
F|101010--------10x-10------101010--------10x-10--10/12-12-|
C|101010-x-x-x--10x-10x-x-x-101010-x-x-x--10x-10--10/12-12-|
G|8-8-8--x-x-x--8-x-8-x-x-x-8-8-8--x-x-x--8-x-8---8/-10-10-|
C|---------------------------------------------------------|

D|-----------------------------------------------------------------|
A|-----------------------------------------------------------------|
F|10101010101010109-9-9-9-9-9-9-9-10101010101010101212121212121212-|
C|1010101010101010101010101010101010101010101010101010101010101010
G|----------------------------------------------------------------|
C|----------------------------------------------------------------|
  . . . . . . . . . . . . . . . .

Chorus 2 Guitars 1 and 2 (distorted)
D|---------------------------------------------------------|
A|---------------------------------------------------------|
F|-------------------3-3-3-3--------------------3-3-3-3--5-|
C|0-x-0---0--------0-3-3-3-3-0-x-0---0--------0-3-3-3-3--5-|
G|0-x-0---0--------0-1-1-1-1-0-x-0---0--------0-1-1-1-1--3-|
C|0-x-0---0--------0---------0-x-0---0--------0------------|
							x2
D|------------------------------------------------------|
A|3--p1----3--p1-----1-3-p1----------------3p1----------|
F|------0--------0-0------------2h5p2-----------0-------|
C|------------------------------------------------------|
G|---------------------------0--------------------------|
C|-------------------------------------3------------3-/5|

Interlude Guitars 1 and 2 (Distorted)
D|---------0-------------------------------------------------|
A|---------3-------------------------------------------------|
F|---------2------------------14-14-14/16-16/18-18-18-18-18--|
C|7---7-7--0-------------------------------------------------|
G|5---5-5--0------------------12-12-12/14-14/16-16-16-16-16--|
C|7---7-7--0-------------------------------------------------|
							x2
D|---------0-----------------------------------------------|
A|---------3-----------------------------------------------|
F|---------2------------------14-14-10/13-13/11-11-11-11-11|
C|5---5-5--0-----------------------------------------------|
G|5---5-5--0------------------12-12-12/11-11/9--9--9--9--9-|
C|5---5-5--0-----------------------------------------------|

D|------------------|
A|------------------|
F|------------------|
C|0--x-x--0--0-0-0-0|
G|0--x-x--0--0-0-0-0|
C|0--x-x--0--0-0-0-0|

             . . .


Guitar 1            x12
D|------|--------------|
A|------|--------------|
F|------|10------9-----|
C|----10|---10-----10--|
G|--8---|------8------8|
C|0-----|--------------|

Guitar 2
      x3
D|------|---------------|
A|------|---------------|
F|------|---------------|
C|0--0-0|0-0-0-0-0-0-0-0|
G|0--0-0|0-0-0-0-0-0-0-0|
C|0--0-0|0-0-0-0-0-0-0-0|
  .  .   . . . . . . . .
Guitar 1            x7
D|--------------------|
A|--------------------|
F|-----10---------9---|
C|--10----10---10---10|
G|8----------8--------|
C|--------------------|

Chorus 3 Guitars 1 and 2 (distorted)
D|---------------------------------------------------------|
A|---------------------------------------------------------|
F|-------------------3-3-3-3--------------------3-3-3-3--5-|
C|0-x-0---0--------0-3-3-3-3-0-x-0---0--------0-3-3-3-3--5-|
G|0-x-0---0--------0-1-1-1-1-0-x-0---0--------0-1-1-1-1--3-|
C|0-x-0---0--------0---------0-x-0---0--------0------------|
							x2
D|------------------------------------------------------|
A|3--p1----3--p1-----1-3-p1----------------3p1----------|
F|------0--------0-0------------2h5p2-----------0-------|
C|------------------------------------------------------|
G|---------------------------0--------------------------|
C|-------------------------------------3------------3-/5|

Outro Guitar 1 (distorted)
D|----------------------------------------------------------|
A|----------------------------------------------------------|
F|----------------------------------------------------------|
C|-------------------------------------------------------8--|
G|-----6--5--3--6--5--3h5-3h5-----------6-5-3---3h5---------|
C|0-0---0--0--0--0---0--------000000000-------0-----0-0-----|
  . .   .  .  .  .   .        ......... . . . .     . .
D|------------------------------------------------------------------|
A|------------------------------------------------------------------|
F|------------------------------------------------------------------|
C|-------------------------------------------------------------0-0-0|
G|----------6-5-3---3h5-3-5-6-5-3-5-----------6-5-3---3h5-3h5--0-0-0|
C|000000000-------0-----------------000000000-------0----------0-0-0|
  ......... . . . .     . . . . . . ......... . . . .          . . .
Outro Guitar 1 (distorted)
D|----------------------------------------------------------|
A|----------------------------------------------------------|
F|----------------------------------------------------------|
C|----------------------2h3-2h3--------------------------8--|
G|-----6--5--3--6--5--------------------6-5-3---3h5---------|
C|0-0---0--0--0--0---0--------000000000-------0-----0-0-----|
  . .   .  .  .  .   .        ......... . . . .     . .
D|-------------------------------------------------------------------|
A|-------------------------------------------------------------------|
F|-------------------------------------------------------------------|
C|----------------------------------------------------2h3-2h3---0-0-0|
G|----------6-5-3---3h5-3-5-6-5-3-5-----------6-5-3-------------0-0-0|
C|000000000-------0-----------------000000000-------0-----------0-0-0|
  ......... . . . .     . . . .     ......... . . . .           . . .

END


+--------------------------------------------------------------------------+
| This file is the author's own work and represents their interpretation   |
| of the song. You may only use this file for private study, scholarship,  |
| or research.                                                             |
+--------------------------------------------------------------------------+



Important: The song above is NOT stored on the Chordie server. The original song is hosted at www.ultimate-guitar.com. Chordie works as a search engine and provides on-the-fly formatting. Chordie does not index songs against artists/composers will. To remove this song please click here.

This song is displayed as text-only. Transposing and tuning is only available for chordpro-songs.

Login - add to songbook

Rating click stars to rate

Layout
Accuracy

SHARE PAGE  

You need to log in to post comments