Unwell

Matchbox 20

----------------Chord Formations------------------

 BmCDEmGG/D
e|---2------0-----2-----0-----3----3----|
b|---3------1-----3-----0-----3----3----|
g|---4------0-----2-----0-----0----0----|
d|---4------2-----0-----2-----0----0----|
a|---2------3-----x-----2-----2----x----|
E|---x------0-----x-----0-----3----x----|


INTRO: G C Em D

(Electric Chords
e|-------------------------| *These power chords are hit at the same timethe
b|-------------------------|  open chords are. I shouldn't have to say the
g|--------5---------7------|  power chords are played on an electric guitar
d|---5----5----5----7------|  with distortion and the open chords are
a|---5----3----5----5------|  on acoustic guitar. Both w/ 2nd fret capo's.
E|---3---------3-----------|


(Lead Intro
e|------3-5-3----------3-5-3-------------3-5-3----------3-5-3-2-------------|
b|--3/5-------5-3--3/5---------------3/5-------5-3--3/5---------------------|
g|-------------------------(5)--------------------------------(7)-----------|
d|-(5)---------------------(5)------(5)-----------------------(7)-----------|
a|-(5)---------------------(3)------(5)-----------------------(5)-----------|
E|-(3)------------------------------(3)-------------------------------------|
e|------3-5-3----------3-5-3-----5-3----------3-5-3-------3-5-3-------------|
b|--3/5-------5-3--3/5---------------5-3--3/5---------3/5-------5-3---------|
g|-------------------------(5)----------------------------------------------|
d|-(5)---------------------(5)-----------------------(5)--------------------|
a|-(5)---------------------(3)-----------------------(5)--------------------|
E|-(3)-----------------------------------------------(3)--------------------|
e|------3-5-3-2----------------------| *I play all of this on my acoustic,
b|--3/5------------3-----3/5---5/7---|  it sounds about right. Everything in
g|------------(7)----2---------------|  brackets is played by the electric
d|------------(7)--------------------|  guitar, mild distortion.
a|------------(5)--------------------|
E|-----------------------------------|


VERSE 1: (This is actually played on piano, but the chords sound good too)
 G/DDGEmG/DD
 All  day,  starrin'  at  the  ceiling  making  friends  with  shadows  on
 EmG/DDGEmC
my wall..........All  night,  hearin'  voices  tellin'  me  that  I should
 D
get  some  sleep  because  tomorrow  might  be  good  for something...
 BmCGDBmCG
       hold  on,  feelin'  like  I'm  headed  for  a...  breakdown,  and  I

e|----12------------------------------------------------12-----------------|
b|---9--------10----10------------------9--------------9-------10--------10|
g|--9---------------9-------------------9-------------9------------------9-|
d|-9-------------------------------------------------9---------------------|
a|-------------------------------------------------------------------------|
E|-------------------------------------------------------------------------|

 DGC
 don't know why...  but  I'm  not  crazy  I'm  just  a  little  unwell...
e|-------------------------------------------------------------------------|
b|----------9--------------------------------------------------------------|
d|----------9-----------------------------------------------------5--------|
g|-----------------------5----------------------------------------5--------|
a|-----------------------5----------------------------------------3--------|
E|-----------------------3-------------------------------------------------|


 EmD
    ...but  stay  awhile  and  maybe  then  you'll see  a different side...
e|-------------------------------------------------------------------------|
b|-------------------------------------------------------------------------|
d|-----------------------------------------------------7-------------------|
g|--5--------------------------------------------------7-------------------|
a|--5--------------------------------------------------5-------------------|
E|--3----------------------------------------------------------------------|


(the rest of the chorus is played exactly the same as the first half I'm not
gonna tab it just to save space...listen to the song.)

VERSE 2: (the picking parts are hard to hear in the song, so listen close
for proper timing, they do exist)
 G/DDGEmG/D
...be  me,  talkin'  to  myself  in  public  dodgin'
 DEm
 glances  on  the  train

                      b|--3-----|
                      g|----2-0-|

 G/DDGEmC
   I  know,  I  know  they've  all  been  talkin'  'bout  me  I  can  hear
 D
them  Whisper  and  it  makes  me  think  there  must  be  something
e|-------------------------------------------------------------------------|
b|----3-3------------------------------3-----------------------------------|
g|-----0------------------------------0------------------------------------|


 BmCGDBmCG
 wrong  with  me,  out  of  all  the  hours  thinking...  somehow,  I've lost
e|-------------------------------------------------------------------------|
b|---3-0-------------------------------------------------3-0---------------|
g|-------2-0-------------------------------------------------2-0-----------|

 D
my mind...

*NOTE: All the little picking things that are played on the 'g' and 'b' string
are played on clean electric. The last two are actually played along with some kind of
keyboard, but I'm sure a guitar can handle it, they are very hard to make out, but again,
they exist.

-------------Both chorus' are played the same, then we move to the bridge...


*This part sounds best if played on both strings, however, if you find it too
difficult, simply play the notes of the higher pitch, and you can achieve the same sound.
The last riff kinda fades in, and it was hard to make out, but it sounds alright to me

 BmCBmC
   be...            I've been talkin' in my sleep...          
e|------3/5--------------------------------------3/5-------3-----|
b|--3/5-3/5---3/5~---------------------------3/5-3/5---3/5-3-5~--|
d|--2/4-------2/4~---------------------------2/4-------2/4---4~--|
g|---------------------------------------------------------------|
a|---------------------------------------------------------------|
E|---------------------------------------------------------------|


 BmC
   Pretty soon they'll come to get me...         ( Tricky...     )

e|----------------------------------3----3/7--5------3-----3-----|
b|------------------------------3/5-3-5--3/7--5--3/5-3-3/5-3-5~--|
d|------------------------------2/4---4----------2/4---2/4---4~--|
g|---------------------------------------------------------------|
a|---------------------------------------------------------------|
E|---------------------------------------------------------------|


 D
  Now they're taking me away...
e|-------------------------------3-3-5------8p7------17p12-------|
b|---------------------5\3~--3/5--5-----5/8----8/12--------12----|
d|---------------------4\2~----------------------------------14~-|
g|---------------------------------------------------------------|
a|---------------------------------------------------------------|
E|---------------------------------------------------------------|


The last note of the solo is the first note of the chorus, switching from the
D chord right into the G chord of "I'm not crazy..." etc. The song ends witha couple
of chorus's and the same guitar part as the intro. Corrections aren't welcome, but
opinions are :-P. E-mail: jdv@ns.sympatico.ca
__________ __ ___ ___
/___ ___/ / / / / / /
/ / ____ / / / / / /
___ / / / / / /_ ___ ___ _ _ \ \/ /
\ \/ / / / / / / / / / / //// \ /
\____/ /___/ / / / // / // / /_ / \__/
__//
/__/

END

+--------------------------------------------------------------------------+

| This file is the author's own work and represents their interpretation |
| of the song. You may only use this file for private study, scholarship, |
| or research. |
+--------------------------------------------------------------------------+


Ultimate-Guitar.Com © 2005


Bm C D Em G G/D
variations - click chord images
Transpose chords:
Tuning:
Cool service:
View: Size:
A  A  A
Rating:
Layout:
  • Currently 0/5 Stars.
  • 1
  • 2
  • 3
  • 4
  • 5
 
Accuracy:
  • Currently 0/5 Stars.
  • 1
  • 2
  • 3
  • 4
  • 5
 
click stars to rate
Chordie recommends:
Check out JamPlay.com for online video guitar lessons
Songbook:
Login to add this song to your songbook
Support the artist
Preview/buy this song
MSN Music
Why this non-profit ad?

 
login to add comments/video/corrections