True Colors

Cyndi Lauper

 AmAm/BCFAmAm/BCF
e|3-----3-3-----3-|3---------------|3-----3-3-----3-|3---------------|
B|--0-1-----0-1---|--0-1-------0-1-|--0-1-----0-1---|--0-1-----------|
G|----------------|------2---------|----------------|------2---------|
D|----------------|----------------|----------------|----------------|
A|0-----0-2-----2-|3---------------|0-----0-2-----2-|3---------------|
E|----------------|------1---1-----|----------------|------1---------|


VERSE 1:
 AmG
You with the sad eyes
 CC/E+5
 Don't be discouraged
 F
Oh I realize
 AmG
It's hard to take courage
 CDm
In a world full of people
 C+5F
 You can lose sight of it all
 AmG
And the darkness inside you
 F/CC
 Make you feel so small

CHORUS:
 FC
But I'll see your true colors
 Gsus4G
 Shining through 
 FC
I'll see your true colors
 FGsus4G
And that's why I love you
 FCFAm
So don't be afraid to let them show
 F/CC
Your true colors
 F/CCGsus4b
 True colors are beautiful,
 Am
Like a Rainbow

I

NTERLUDE:
(rainbow...) (Show me a)
e|3-----3-3-----3-|3---------------|3-----3-3-----3-|3---------------|
B|--0-1-----0-1---|--0-1-----0-1-2-|--0-1-----0-1---|--0-1-----------|
G|----------------|------2---------|----------------|------2---------|
D|----------------|----------------|----------------|----------------|
A|0-----0-2-----2-|3---------------|0-----0-2-----2-|3---------------|
E|----------------|------1-------1-|----------------|------1---------|


VERSE 2:
Show me a smile then,

Don't be unhappy, can't remember
When I last saw you laughing
If this world makes you crazy
And you've taken all you can bear
You call me up
Because you know I'll be there

CHORUS
INTERLUDE
VERSE 3:
Oooo....
(whispered)
can't remember
When I last saw you laughing
(sung)
If this world makes you crazy
And you've taken all you can bear
You call me up
Because you know I'll be there

FINAL CHORUS:
And I'll see your true colors
Shining through
I'll see your true colors
And that's why I love you
So don't be afraid to let them show
Your true colors, true colors,
 F/CCGsus4G
 true colors are shining through
 FGsus4
I'll see your true colors
 FGsus4G
And that's why I love you
 FCFAm
So don't be afraid to let them show
 F/CCF/CC
 Your true colors, true colors
 Gsus4b
 Beautiful,

 Am
Like a Rainbow
              |3-----3-3-----3-|3---------------||
              |--0-1-----0-1---|--0-1-----------||
              |----------------|------2---------||
              |----------------|----------------||
              |0-----0-1-----1-|3---------------||
              |----------------|------1---------||


Chords:
Am: X02210
G: 320033
C: X32010
C/E+5: 032013
F: 133211
Dm: XX0231
C+5: X32013
F/C: X33211
Gsus4: 320013
Gsus4b: 3XX533

END

+--------------------------------------------------------------------------+

| This file is the author's own work and represents their interpretation |
| of the song. You may only use this file for private study, scholarship, |
| or research. |
+--------------------------------------------------------------------------+


Ultimate-Guitar.Com © 2005


Am Am/B C C+5 Dm F F/C G Gsus4
variations - click chord images
Transpose chords:
Tuning:
Cool service:
View: Size:
A  A  A
Rating:
Layout:
  • Currently 3.5/5 Stars.
  • 1
  • 2
  • 3
  • 4
  • 5
 
Accuracy:
  • Currently 4/5 Stars.
  • 1
  • 2
  • 3
  • 4
  • 5
 
click stars to rate
Chordie recommends:
Learn to play this song & others via video guitar lessons at JamPlay.com
Songbook:
Login to add this song to your songbook
Support the artist
Preview/buy this song
MSN Music
Why this non-profit ad?

 
login to add comments/video/corrections