Tell Me Where It Hurts

Mymp

e |-------5-5-5-5-5--5-3--5-5s7-7-----5-5-5--3--5-5s10-------------------|

B |-----3--------------------------3---------------------8--8h10---------|
G |----------------------------------------------------------------------|
D |----------------------------------------------------------------------|
A |-----------------------------------3----------------------------------|
E |-------3--------------------------------------------------------------|

 G
 Why is that sad look in your eyes

why are you crying?
 C
 Tell me now, tell me now

Tell me, why you're feelin this way

 G
I hate to see you so down, oh baby
 CEm5
Is it your heart

Oh, thats breakin' all in pieces
 CEm5
makin' you cry
 Bb6
Makin' you feel blue

Is there anything that i can do

CHORUS:
 G
Why don't you tell me where it hurts now, baby
 Em5
And I'll do my best to make it better
 G/F#C9D
 Yes, I'll do my best to make the tears all go away
 G
Just tell me where it hurts

Now, tell me

 G/F#Em5
 And I love you with a love so tender
 C9
Oh and if you let me stay
 D
I'll love all of the hurt away

e |-------5-5-5-5-5--5-3--5-5s7-7----------------------------------------|
B |-----3----------------------------------------------------------------|
G |----------------------------------------------------------------------|
D |----------------------------------------------------------------------|
A |----------------------------------------------------------------------|
E |-------3--------------------------------------------------------------|


Verse 2:
 G
Where are all those tears coming from

Why are they falling?
 C
somebody, somebody, somebody leave your heart in the cold
 G
You just need somebody to hold on, baby
 CEm5
Give me a chance

To put back all the pieces
 CEm5
Take hold of your heart
 Bb6
Make it just like new

There's so many things that I can do.........

Ad lib:

 BbD#
e |-------8-8-8-8-8----8-6----6s8--8s10--8--6--------------8s10s6--8-8-8-|
B |-----6------------6------6--------------------------------------------|
G |-----------------------------------------------5-7-3----5s-7s3--5-5-5-|
D |----------------------------------------------------------------------|
A |----------------------------------------------------------------------|
E |----------------------------------------------------------------------|
e |------s10s8s6---------------------------------------------------------|
B |------s7-s5s6---------------------------------------------------------|
G |----------------5-5-5---5-3---3s5s7s8s10------------------------------|
D |---------------3-------3-----3----------------------------------------|
A |----------------------------------------------------------------------|
E |----------------------------------------------------------------------|


 CEm5
Is it your heart

Oh, that's breakin' all in pieces
 CEm5
Makin' you cry
 Bb6
Makin' you feel blue

Is there anything that I can do

CHORUS: same chords

Tell me baby
Tell me, ohh yeah
IS there anything that i can do babe
Just tell me where it hurts
Now, tell me
And I love you with a love so tender
Oh, and if you let me stay
I'll love all of the hurt away

outro"

 GCBb6/FG
e |-------5-5-5-5-5--5-3--5-5s7-7-----5-5-5--3--5-5s10-------------1-----|
B |-----3--------------------------3---------------------8--8h10---1-----|
G |----------------------------------------------------------------3-----|
D |----------------------------------------------------------------3-----|
A |-----------------------------------3----------------------------1-----|
E |-------3--------------------------------------------------------1-----|


For any comments, you can send your messages at (winserrano@yahoo.com)pwede
rin sa friendster ko. tnxxxx

END

+--------------------------------------------------------------------------+

| This file is the author's own work and represents their interpretation |
| of the song. You may only use this file for private study, scholarship, |
| or research. |
+--------------------------------------------------------------------------+


Ultimate-Guitar.Com © 2005


Bb Bb6 Bb6/F C C9 D D# G G/F#
variations - click chord images
Transpose chords:
Tuning:
Cool service:
View: Size:
A  A  A
Rating:
Layout:
  • Currently 4.4/5 Stars.
  • 1
  • 2
  • 3
  • 4
  • 5
 
Accuracy:
  • Currently 5/5 Stars.
  • 1
  • 2
  • 3
  • 4
  • 5
 
click stars to rate
Chordie recommends:
Get acoustic guitar lessons and electric guitar lessons at JamPlay.com
Songbook:
Login to add this song to your songbook
Support the artist
Preview/buy this song
MSN Music
Why this non-profit ad?

 
login to add comments/video/corrections