Tulog Na

Sugarfree

 DD/EbD/ED/FGF#mBm
e |--2-----2-----2-----2-----3-----2-----2--|
G |--3-----3-----3-----3-----3-----2-----3--|
D |--2-----3-----4-----5-----0-----2-----4--|
B |--0-----x-----x-----x-----0-----3-----4--|
A |--x-----x-----x-----x-----2-----3-----2--|
E |--x-----x-----x-----x-----3-----2-----x--|


E* E/F E/G E/A C/e
e |--4-----4-----4-----4----0--|
G |--5-----5-----5-----5----1--|
D |--4-----5-----6-----7----0--|
B |--x-----x-----x-----x----0--|
A |--x-----x-----x-----x----2--|
E |--x-----x-----x-----x----x--|


Note: Listen to the song for the timing of the chords.
verse I
 DBm
Tulog na mahal ko
 EmAGF#m
Hayaan muna natin ang mundong ito 
 BmEmF#m-G-A
Lika na, tulog na tayo 

 DBm
Tulog na mahal ko
 EmAGF#m
Wag kang lumuha, malambot ang iyong kama
Bm C C/e A-A9-A
Saka na mamroblema

Chorus I:
 DD/EbD/ED/F
Tulog na hayaan na muna natin sila  
 GF#mBmAEsus-E
Mamaya, hindi ka na nila kaya pang saktan
G Gm(hold)
'Di matulog, matulog ka na

verse II
 DBm
Tulog na mahal ko
 EmAGF#m
Nandito lang ako bahala sa iyo 
 BmEmF#mGA
Sige na, tulog na muna        

 DBm
Tulog na, mahal ko
 EmAGF#m
At baka bukas ngingiti ka sa wakas 
Bm C C/e A-A9-A
At sabay nating harapin ang mundo

(Repeat Chorus)
La la la...la la la...(Use verse second part chords)

Chorus II:
E* E/F E/G E/A
Tulog na hayaan na muna natin sila
 AG#mC#mBF#sus-F#
Mamaya, hindi ka na nila kaya pang saktan
A Am(hold)
'Di matulog, matulog ka na

Outro:E-Am-(*) 2x
La..la..la matulog ka na(2x)

(*) E Am
e |---0-----0----2-3-2-0---|
G |---0-----1--------------|
D |---1-----2--------------|
B |---2-----2--------------|
A |---2-----0--------------|
E |---0-----0--------------|


Yun lang yun.Check out for my other sugarfree tabs.

END

+--------------------------------------------------------------------------+

| This file is the author's own work and represents their interpretation |
| of the song. You may only use this file for private study, scholarship, |
| or research. |
+--------------------------------------------------------------------------+


Ultimate-Guitar.Com © 2005


A B Bm C#m D D/E D/F Em Esus-E F#m G G#m
variations - click chord images
Transpose chords:
Tuning:
Cool service:
View: Size:
A  A  A
Rating:
Layout:
  • Currently 0/5 Stars.
  • 1
  • 2
  • 3
  • 4
  • 5
 
Accuracy:
  • Currently 0/5 Stars.
  • 1
  • 2
  • 3
  • 4
  • 5
 
click stars to rate
Chordie recommends:
Get acoustic guitar lessons and electric guitar lessons at JamPlay.com
Songbook:
Login to add this song to your songbook
Support the artist
Preview/buy this song
MSN Music
Why this non-profit ad?

 
login to add comments/video/corrections