It Doesnt Matter Anyhow

Jose Feliciano

 F#244322
 F#sus4  x24422
D7 x00212
Gmaj7 3x5432
Gm6 3x233x
D/f# 2x4232
 F#m244222
 Em7     020000
D x00232
A7 x02020
Dsus4 x00233
G/e 322433
 F#m7242222
 Em      022000
A x02220
G 320033 355433
Bm7 x24232
E 022100
Bbm7 x13121
F#5/g xx567x
C#m/g xx565x
F#m/a xx767x
Bm x24432 x99777
A# x88766
Am x02230 x77555
Am6 xx757x
 Gm355333
 F#5/d#  xx1122
Eb9 xx1021
A/s xx0220
E7 020104

Intro:
 F#m/dBm7/dF#m/dBm7/d
|-2---2---2---2---2-----2---2---2------|
|-2---2---0---0---0h2---2---0---0------|
|---2---2---2---2-2---2---2---2---2----|
|-0---------------0--------------------|
|--------------------------------------|
|--------------------------------------|

It's been so

Verse 1:
F#m/d Bm7/d F#m/d E5/c# F# F#sus4 D7

|-----2---2---2-------0-------2-------2---2---2------|
|-----2---0---2-------0-------2-------2---1---1------|
|---2---2---2---2---4---4---3---3-------4-------2----|
|-0---------------------------------4-------0--------|
|-----------------4---------------2-------0----------|
|-------------------------2--------------------------|

long since my baby has been
here and I'm so
lonely. I

Gmaj7 Gm6 D/f# F#m Em7 D A7
|-----2-------------------------------0---2---0------|
|---3-0---3---3-------3-2-2---0-------0---3---2------|
|-------4-3---3-------2---2---0-----4---4---0---0----|
|-----------2---2---4-------4---0--------------------|
|-----------------------------------------0----------|
|-3-------3-------2-------2-------0------------------|

Remember when she
was my one and only. But I guess it doesn't
matter

D Dsus4 D G/e Dsus4/a A7
|-----2---3---2-------3---3---3------|
|-----3---3---3-------3---3---2------|
|---2---2---2---2---4---4---2---0----|
|-0---------------2------------------|
|-------------------------0----------|
|------------------------------------|

anyway. When I

Verse 2:
F#m/d Bm7/d F#m/d E5/c# F# F#sus4 D7
|-----2---2---2-------0-------2-------2---2---2------|
|-----2---0---2-------0-------2-------2---1---1------|
|---2---2---2---2---4---4---3---3-------4-------2----|
|-0---------------------------------4-------0--------|
|-----------------4---------------2-------0----------|
|-------------------------2--------------------------|

Think of all the times I made her
cry. I hope she
knows by now that I was

Gmaj7 Gm6 D/f# F#m Em7 D A7
|-----2-------------------------------0---2---0------|
|---3-0---3---3-------3-2-2---0-------0---3---2------|
|-------4-3---3-------2---2---0-----4---4---0---0----|
|-----------2---2---4-------4---0--------------------|
|-----------------------------------------0----------|
|-3-------3-------2-------2-------0------------------|

just a little
high and I am
sorry. But I guess it doesn't
matter
D Dsus4 D G/e Dsus4/a A7
|-----2---3---2-------3---3---3------|
|-----3---3---3-------3---3---2------|
|---2---2---2---2---4---4---2---0----|
|-0---------------2------------------|
|-------------------------0----------|
|------------------------------------|

anyhow. If

Chorus:
 GF#m7EmADAD
|-----3-------3-------0-------0-------0-------0-------2---------2----|
|-----0-------3-------2-------2-------0-------2-------3-----2---3----|
|---0---0---0---0---2---2-----------0---0---2---2---2---2---2--------|
|---------------------------4---4-----------------0-----------0------|
|-----------------------------------------0---------------0----------|
|-3-------3-------2-------2-------0----------------------------------|

If had the time, I would try and find my mind. The

 GF#m7Bm7EA

|-----3-------3-------0-------0-------2-------0-------0-------0------|
|-----0-------3-------2-------2-------3-------0-------2-------2------|
|---0---0---0---0---2---2-----------2---2---1-------2---2---2---2----|
|---------------------------4---4------------------------------------|
|---------------------------------2-------------2-0-------0----------|
|-3-------3-------2-------2---------------0--------------------------|

Years have quickly gone by and there's
no time for a lonel guy. But if

Verse3:
F#m/d Bm7/d F#m/d E5/c# F# F#sus4 D7
|-----2---2---2-------0-------2-------2---2---2------|
|-----2---0---2-------0-------2-------2---1---1------|
|---2---2---2---2---4---4---3---3-------4-------2----|
|-0---------------------------------4-------0--------|
|-----------------4---------------2-------0----------|
|-------------------------2--------------------------|

you see her, tell her that I realy
care and that I
miss her. I

Gmaj7 Gm6 D/f# F#m Em7 D A7
|-----2-------------------------------0---2---0------|
|---3-0---3---3-------3-2-2---0-------0---3---2------|
|-------4-3---3-------2---2---0-----4---4---0---0----|
|-----------2---2---4-------4---0--------------------|
|-----------------------------------------0----------|
|-3-------3-------2-------2-------0------------------|

remember all the
nights I used to kiss her.
But I guess that doesn't
matter

D Dsus4 D G/e A7
|-----2-------3-2-------3---------|
|-----3-----3-3-3-----3---3---3-2-|
|---2-------2-------4-------4-----|
|-0---------------2---------------|
|-------4-2-----------------------|
|---------------------------------|

anyhow

Solo 1:
F#m Bm7 E5/c# F# F#sus4 D7
|------------0-2-----2-2-2-----2-2-2-5/7---5----------------------------|
|-----2-3-5----------------5-----------------3/5-3-5b7r5p3p0-3----------|
|-2-4-------------------------------------------------------------------|
|-----------------------------------------------------------------------|
|-----------------------------------------------------------------------|
|-----------------------------------------------------------------------|


Gmaj7 Gm6 D/f#
|----0h2p0-----0h2p0---0h2p0------0-2-3-2-0-----0-----------------------|
|-0-3-----3-0h3-----0-3-----3-0-3-----------3-2---3-2-0-3p2p0-----------|
|-------------------------------------------------------------2p0-------|
|-----------------------------------------------------------------4-----|
|-----------------------------------------------------------------------|
|-----------------------------------------------------------------------|


 F#mEm7A7DDsus4D
|--------------------------------2---5-3-0------------------------------|
|---0-2-3---3p2p0-----------0-3----3-------2-----------3----------------|
|-2---------------2-0-----0------------------2-0------------------------|
|---------------------4-2--------------------------2/4------------------|
|-----------------------------------------------------------------------|
|-----------------------------------------------------------------------|


G A7 Bm7 F#m E5/c# F#
|-----------------------------------------------------------------------|
|-8-7-5-------------------5-5/7----7b8r7-5-----------5-7-8-7h8p7p5------|
|-------7-6-4-------4-6-7------------------7-6---6-7---------------7-6--|
|-------------7---7-----------------------------------------------------|
|-----------------------------------------------------------------------|
|-----------------------------------------------------------------------|


Bm D7 Gmaj7 Gm6 D/f#
|-----------------------------------------------------------------------|
|-3-3---3-2-1-----3-5-5/7-----8-----7-----5-----------------------------|
|-4-4---4-3-2---4---------4-----------------7---6--4----------7-6-4-----|
|---------------------------5---9-9---8-8-----8-------7--4--7-------7-6-|
|-----------------------------------------------------------------------|
|-----------------------------------------------------------------------|


Bbm7 Em7 F#5/g
C#m/g F#m/a Bm A# Am Am6
|-----------------------------------------------------------------------|
|---------------------------7-5-5p7----7--7----7----7----7--6--5---7----|
|-------4--7p4--------4-7-4-6-6-6------6--6----6----6----7--7--5---5----|
|----6---------5----5-------5-5-5------7--7----7----7----9--8--7---7----|
|-8---------------7-----------------------------------------------------|
|-----------------------------------------------------------------------|


Chorus:
 GF#m7EmADAD
|-----3-------3-------0-------0-------0-------0-------2---------2----|
|-----0-------3-------2-------2-------0-------2-------3-----2---3----|
|---0---0---0---0---2---2-----------0---0---2---2---2---2---2--------|
|---------------------------4---4-----------------0-----------0------|
|-----------------------------------------0---------------0----------|
|-3-------3-------2-------2-------0----------------------------------|

If had the time, I would try and find my mind. The

 GF#m7Bm7EA
|-----3-------3-------0-------0-------2-------0-------0-------0------|
|-----0-------3-------2-------2-------3-------0-------2-------2------|
|---0---0---0---0---2---2-----------2---2---1-------2---2---2---2----|
|---------------------------4---4------------------------------------|
|---------------------------------2-------------2-0-------0----------|
|-3-------3-------2-------2---------------0--------------------------|

Years have quickly gone by and there's
no time for a lonely guy. But if

Verse 3:
F#m/d Bm7/d F#m/d E5/c# F# F#sus4 D7
|-----2---2---2-------0-------2-------2---2---2------|
|-----2---0---2-------0-------2-------2---1---1------|
|---2---2---2---2---4---4---3---3-------4-------2----|
|-0---------------------------------4-------0--------|
|-----------------4---------------2-------0----------|
|-------------------------2--------------------------|

you see her, tell her that I realy
care and that I
miss her. I

Gmaj7 Gm6 D/f# F#m Em7 D A7
|-----2-------------------------------0---2---0------|
|---3-0---3---3-------3-2-2---0-------0---3---2------|
|-------4-3---3-------2---2---0-----4---4---0---0----|
|-----------2---2---4-------4---0--------------------|
|-----------------------------------------0----------|
|-3-------3-------2-------2-------0------------------|

remember all the
nights I used to kiss her.
But I guess that doesn't
matter

D Dsus4 D G/e A7
|-----2-------3-2-------3-----0-------------|
|-----3-----3-3-3-----3---3---2-------------|
|---2-------2-------4---------0-------------|
|-0---------------2-----------2-------------|
|-------4-2-------------------0-------------|
|-------------------------------------------|

anyhow, now I guess it doesn't
matter

D Dsus4 D G/e

|-----2-------3-2-----3-----|
|-----3-----3-3-3-------3---|
|---2-------2-------4-----4-|
|-0---------------2---------|
|-------4-2-----------------|
|---------------------------|

anyhow

Solo 2:
A7 Bm7 E5/c# F# F#sus4 D7
|-----------0-2-----2-2-2----2-5/7--6-9-7-6-7/10-10-9-12-10--10---9---8-|
|-----2-3-5---------------5---------------------------------12--11--10--|
|-2-4-------------------------------------------------------------------|
|-----------------------------------------------------------------------|
|-----------------------------------------------------------------------|
|-----------------------------------------------------------------------|


Gmaj7 Gm6 D/f# Em7
|----------------------------------------------------------------|
|-3-5-3-5/7-5-------5-8----7h8p7p5---5--7------------------------|
|-------------7-4-7----------------7--------7-6-4-6b7--7r6-4-----|
|------------------------------------------------------------7-5-|
|----------------------------------------------------------------|
|----------------------------------------------------------------|


 DGA7Bm7
|-----------------------4/6-7-5h7p5------------------------------------------|
|--------7----5-----5-8-------------7-5-7-----5/3-3-----3/5-5----------------|
|----4-7--------4-6---------------------7-----6/4-4---4---6-6---6-7-9--9-11--|
|--5------------------------------------------------5-----------------11-12--|
|7---------------------------------------------------------------------------|
|----------------------------------------------------------------------------|


 FmBmAm
|----------------------------------------------------------------------------|
|--9b10-b10---9b10-b10--10----11-11/14-14-14/12-12-11-8-7-5-7-5-3-2-3-7-6-5--|
|-10b11-b11--10b11-b11--11----11-11/15-15-15/12-12-11-9-8-6-7-6-4-3-4-7-6-5--|
|----------------------------------------------------------------------------|
|----------------------------------------------------------------------------|
|----------------------------------------------------------------------------|


 GGmBm7Bbm7
|----------------------------------------------------------------------------|
|---3-5-5b6--6r5p3---5-3-----------------3-2-5-3-2---2h3p2---2h3p2---2h3p2---|
|-4----------------4-------3-2h3p2p0---2-----------4-------4-------4-------4-|
|------------------------------------4---------------------------------------|
|----------------------------------------------------------------------------|
|----------------------------------------------------------------------------|


 Eb9A/d
|-2-----------2-3h5-3-2h3p2p0--------------------------------------2---1---0-|
|---3-------3-----------------3-2-3------3-2--------------------3--2---2---2-|
|-----4---4----------------------------------4---2-----------4-----1---0---2-|
|-------5------------------------------4-----------5-4-2--5--------1---1---0-|
|----------------------------------------------------------------------------|
|----------------------------------------------------------------------------|


outro: E7
|-5-5---------------------------------------4----|
|-----7-7-5-5-------------------------------0----|
|-------------7-7-6-6-----4-4-----2---------1----|
|---------------------7-7-----4-4---0-4-----0----|
|---------------------------------------0---2----|
|-------------------------------------------0----|


END

+--------------------------------------------------------------------------+

| This file is the author's own work and represents their interpretation |
| of the song. You may only use this file for private study, scholarship, |
| or research. |
+--------------------------------------------------------------------------+


Ultimate-Guitar.Com © 2005


A A7 Am Bbm7 Bm Bm7 D Dsus4 E Eb9 Em Em7 F# F#m F#m7 Fm G Gm
variations - click chord images
Transpose chords:
Tuning:
Cool service:
View: Size:
A  A  A
Rating:
Layout:
  • Currently 0/5 Stars.
  • 1
  • 2
  • 3
  • 4
  • 5
 
Accuracy:
  • Currently 0/5 Stars.
  • 1
  • 2
  • 3
  • 4
  • 5
 
click stars to rate
Chordie recommends:
Learn how to play guitar at JamPlay.com
Songbook:
Login to add this song to your songbook
Support the artist
Preview/buy this song
MSN Music
Why this non-profit ad?

 
login to add comments/video/corrections