Chordie logo

   Various Artists


Go Zone Tab by Ac Dc, www.Ultimate-Guitar.Com

------------------------------------------------------------------|
-5-5-3-2-3-2-3-2-5-5-3-2-3-2-3-2-5-5-3-2-3-2-3-2-5-5-3-2-3-2-3-2--|
-2-2-2-2-2-2-2-2-2-2-2-2-2-2-2-2-2-2-2-2-2-2-2-2-2-2-2-2-2-2-2-2--|
------------------------------------------------------------------|
------------------------------------------------------------------|
------------------------------------------------------------------|

--15b-~~~~-15-13-12----12---------------------------------|
--------------------15----15--12-14-12-15-12~-------------|
------------------------------12-12-12-12-12~-14b(15)-----|
----------------------------------------------------------|
------------------------------------------------------/---|
----------------------------------------------------------|

---------------------------------------------------------------------------------------------|
--14b(15)-15-15--12-15-14-12----12-----------------------------------------------------------|
-----------------------------14----14------------------------------------------------/7-9-7--|
--------------------------------------11-12-12----11------12b~~------5----~~~----------|
-----------------------------------------------12----12----------/------------------------|
---------------------------------------------------------------------------------------------|

-----------5-2-0---0---------------------------------------------------------------------------|
-----------------2--------------------------------------------------15b-12-15-12-15b12--15-15--|
----7----------------2~~~~---------------------------------------------------------------------|
--9---9----------------------0-2-0-----0-------------------------------------------------------|
------------------------------------2b---r0----------------------------------------------------|
------------------------------------------------7-7---7\---7-7--7\-----------------------------|

--3-5b~~r-3-0-------------------------------------------------------------------------------|
--------------3-5~~-------------------------------------------------------------------------|
--------------------2-/7-9b~~r-7---7----------7-9b-r7---7--------7/12-9-7---7---------------|
---------------------------------9---7~~---------------9---7~~-------------9---9--7~~~~~~~--|
------------------------------------------/-\-----------------------------------------------|
--------------------------------------------------------------------------------------------|

Notation used:
b-bend
~-vibrato
/-slide
r-release
-pinch harmonic


Important: The song above is NOT stored on the Chordie server. The original song is hosted at www.ultimate-guitar.com. Chordie works as a search engine and provides on-the-fly formatting. Chordie does not index songs against artists/composers will. To remove this song please click here.

This song is displayed as text-only. Transposing and tuning is only available for chordpro-songs.

Login - add to songbook

Rating click stars to rate

Layout
Accuracy

SHARE PAGE  



You need to log in to post comments