Tablatura de NICO M. (nicokbbl@hotmail.com)
Artista: Green Day Cancion: Maria Album: International Superhits! (2001)
Intro 1|--------------------------------------------| 2|-7-7-7--------------------------------------| 3|-7-7-7--------------------------------------|x4 4|-7-7-7-7-x-x-x-x-x-x-x-x-x-x-x-x-x-x-x-x----| 5|-5-5-5-7-x-x-x-x-x-x-x-x-x-x-x-x-x-x-x-x ---| 6|-------5-0-0-0-0-0-0-0-0-0-0-0-0-0-0-0-0----|
She smashed the radio with the board of education Turn up the static left of the state of the nation
1|---------------------------------------------| 2|--------9-9-9-9-9-9-9-9-9-9-9-9-9-9-9-9------| 3|--------9-9-9-9-9-9-9-9-9-9-9-9-9-9-9-9------|x4 4|-7-7-6--9-9-9-9-9-9-9-9-9-9-9-9-9-9-9-9------| 5|-7-7-6--7-7-7-7-7-7-7-7-7-7-7-7-7-7-7-7------| 6|-5-5-4---------------------------------------|
Turn up the flame, step on the gas Burning the flag at half mast She's a rebel's forgotten son An export of the revolution
1|--------------------------------------------| 2|-7-7-7--------------------------------------| 3|-7-7-7--------------------------------------|x2 4|-7-7-7-7-x-x-x-x-x-x-x-x-x-x-x-x-x-x-x-x----| 5|-5-5-5-7-x-x-x-x-x-x-x-x-x-x-x-x-x-x-x-x ---| 6|-------5-0-0-0-0-0-0-0-0-0-0-0-0-0-0-0-0----|
She is the first voice of the last ones in the line She'll drag the lake to keep the vendetta alive
1|---------------------------------------------| 2|--------9-9-9-9-9-9-9-9-9-9-9-9-9-9-9-9------| 3|--------9-9-9-9-9-9-9-9-9-9-9-9-9-9-9-9------|x4 4|-7-7-6--9-9-9-9-9-9-9-9-9-9-9-9-9-9-9-9------| 5|-7-7-6--7-7-7-7-7-7-7-7-7-7-7-7-7-7-7-7------| 6|-5-5-4---------------------------------------|
Bring in the head of the government The dog ate the document Somebody shot the President And no one knows where Maria went?
(coro) (chorus) 1|---------------------------------------------------------------------| 2|7-7-7-7--5-5-5-5--7-7-7-7--5-5-5-5--7-7-7-7--5-5-5-5--9-9-9-9-9-9-9-9| 3|7-7-7-7--6-6-6-6--7-7-7-7--6-6-6-6--7-7-7-7--6-6-6-6--9-9-9-9-9-9-9-9| 4|7-7-7-7--7-7-7-7--7-7-7-7--7-7-7-7--7-7-7-7--7-7-7-7--9-9-9-9-9-9-9-9| 5|5-5-5-5--7-7-7-7--5-5-5-5--7-7-7-7--5-5-5-5--7-7-7-7--7-7-7-7-7-7-7-7| 6|---------5-5-5-5-----------5-5-5-5-----------5-5-5-5-----------------|
Maria, Maria, Maria, Where did you go?
1|----------------------------------------| 2|-9--9-9-10--10-10-9------10--10-10------| 3|-9--9-9--9---9--9-9--9-9--9---9--9------|x6 4|-9--9-9--7---7--7-9--9-9--7---7--7------| 5|-7--7-7--7---7--7-9--9-9--7---7--7------| 6|----------------------------------------|
Be careful what you're offering Your breath lacks the conviction Drawing the line in the dirt Because the last decision
1|-0--0-12--10-10--10---------10-10-----------| 2|-9-10-12--10-10--10---------10-10-----------| 3|--------------------12bfull-------12bfull---|x4
4|--------------------------------------------| 5|--------------------------------------------| 6|--------------------------------------------|
....is no.
1|----4-4-5-5-7-7----4-5--| 2|-5-5------------5-7-----| 3|------------------------| 4|------------------------| 5|------------------------| 6|------------------------|
1|--------------------------------------------| 2|-7-7-7--------------------------------------| 3|-7-7-7--------------------------------------|x4 4|-7-7-7-7-x-x-x-x-x-x-x-x-x-x-x-x-x-x-x-x----| 5|-5-5-5-7-x-x-x-x-x-x-x-x-x-x-x-x-x-x-x-x ---| 6|-------5-0-0-0-0-0-0-0-0-0-0-0-0-0-0-0-0----|
She smashed the radio with the board of education Turn up the static left of the state of the nation
1|---------------------------------------------| 2|--------9-9-9-9-9-9-9-9-9-9-9-9-9-9-9-9------| 3|--------9-9-9-9-9-9-9-9-9-9-9-9-9-9-9-9------|x4 4|-7-7-6--9-9-9-9-9-9-9-9-9-9-9-9-9-9-9-9------| 5|-7-7-6--7-7-7-7-7-7-7-7-7-7-7-7-7-7-7-7------| 6|-5-5-4---------------------------------------|
Turn up the flame, step on the gas Burning the flag at half mast She's a rebel's forgotten son An export of the revolution
(coro) (chorus) 1|---------------------------------------------------------------------| 2|7-7-7-7--5-5-5-5--7-7-7-7--5-5-5-5--7-7-7-7--5-5-5-5--9-9-9-9-9-9-9-9| 3|7-7-7-7--6-6-6-6--7-7-7-7--6-6-6-6--7-7-7-7--6-6-6-6--9-9-9-9-9-9-9-9| 4|7-7-7-7--7-7-7-7--7-7-7-7--7-7-7-7--7-7-7-7--7-7-7-7--9-9-9-9-9-9-9-9| 5|5-5-5-5--7-7-7-7--5-5-5-5--7-7-7-7--5-5-5-5--7-7-7-7--7-7-7-7-7-7-7-7| 6|---------5-5-5-5-----------5-5-5-5-----------5-5-5-5-----------------|
Maria, Maria, Maria, Where did you go?
(coro) (chorus) 1|---------------------------------------------------------------------| 2|7-7-7-7--5-5-5-5--7-7-7-7--5-5-5-5--7-7-7-7--5-5-5-5--9-9-9-9-9-9-9-9| 3|7-7-7-7--6-6-6-6--7-7-7-7--6-6-6-6--7-7-7-7--6-6-6-6--9-9-9-9-9-9-9-9| 4|7-7-7-7--7-7-7-7--7-7-7-7--7-7-7-7--7-7-7-7--7-7-7-7--9-9-9-9-9-9-9-9| 5|5-5-5-5--7-7-7-7--5-5-5-5--7-7-7-7--5-5-5-5--7-7-7-7--7-7-7-7-7-7-7-7| 6|---------5-5-5-5-----------5-5-5-5-----------5-5-5-5-----------------|
Maria, Maria, Maria, Where did you go?
final 1|----------------------------------| 2|-9-9-9-10-10-10-12-12-12-10-10-10-| 3|-9-9-9--9--9--9-11-11-11--9--9--9-|x3 4|-9-9-9--7--7--7-11-11-11--7--7--7-| 5|-7-7-7--7--7--7-9---9--9--7--7--7-| 6|----------------------------------|
1|----------------------------------------| 2|-9-9-9-10-10-10-12-12-12-10-10--7-7-7-5-| 3|-9-9-9--9--9--9-11-11-11--9--9--7-7-7-6-| 4|-9-9-9--7--7--7-11-11-11--7--7--7-7-7-7-| 5|-7-7-7--7--7--7-9---9--9--7--7--5-5-5-7-| 6|--------------------------------------5-|














variations - click chord images
Transpose chords:
Tuning:
Cool service:
View: Size:
A  A  A
Rating:
Layout:
  • Currently 0/5 Stars.
  • 1
  • 2
  • 3
  • 4
  • 5
 
Accuracy:
  • Currently 1.5/5 Stars.
  • 1
  • 2
  • 3
  • 4
  • 5
 
click stars to rate
Chordie recommends:
Check out JamPlay.com for online video guitar lessons
Songbook:
Login to add this song to your songbook
Support the artist
Preview/buy this song
MSN Music
Why this non-profit ad?

 
login to add comments/video/corrections