"yes"; ?> Lights by Journey - guitar chords, guitar tabs and lyrics - chordie

Lights

Journey

       e|--------------------|--------------------|--------------------|

B|-----3--3h5--3--3---|-------3h5-3--------|-----3--3h5--3--3---|
G|---2----2----2--4---|-----4-------4------|---2----2----2--4---|
D|-0------------------|---4----------------|-0------------------|
A|--------------------|-2------------------|--------------------|
E|--------------------|--------------------|--------------------|

 ABmC
       e|--------------------|--------------------|-------------|-/5--3--2-|
       B|-------2h3-2--------|-------3h5-3--------|-------5-----|-/7--5--3-|
       G|-----2-------2------|-----4-------4------|-----5---5---|----------|
       D|---2----------------|---4----------------|---5-------5-|----------|
       A|-0------------------|-2------------------|-3-----------|----------|
       E|--------------------|--------------------|-------------|----------|


Verse: D Bm C
       e|-------------------|----------------|-------------|-------------|
       B|-----3--3h5--3--3--|-------3h5------|-------5-----|-------5-----|
       G|---2----2----2--4--|-----4-----3----|-----5---5---|-----5---5---|
       D|-0-----------------|---4---------4--|---5-------5-|---5-------5-|x3
       A|-------------------|-2--------------|-3-----------|-3-----------|
       E|-------------------|----------------|-------------|-------------|


 BmC
       e|----------------|--------------|-/5--3--2--|
       B|-------3h5------|-------5------|-/7--5--3--|
       G|-----4-----3----|-----5---5----|-----------|
       D|---4---------4--|---5-------5--|-----------|
       A|-2--------------|-3------------|-----------|
       E|----------------|--------------|-----------|


REPEAT VERSE x 2

Chords played here: |Bm|G|D|D| |Bm|G|D|A|

                    |Bm|G|D|D|   |Bm|C||-/5--3--2--|
                                       |-/7--5--3--|
                                       |-----------|
                                       |-----------|
                                       |-----------|
                                       |-----------|


REPEAT VERSE

Solo: Bm G
       e|---------------------12(14)-12(14)-12-10-12-10--|
       B|--------------10-12-----------------------------|
       G|-------7-9/11-----------------------------------|
       D|---7-9------------------------------------------|
       A|-9----------------------------------------------|
       E|------------------------------------------------|


 DBmG
       e|----10-12(14)-12(14)-12-10-12----|-10(12)-10-7--------------------|
       B|-12---------------------------10-|-------------10-7---------------|
       G|---------------------------------|------------------9(11)(9)p7---7|
       D|---------------------------------|-----------------------------9--|
       A|---------------------------------|--------------------------------|
       E|---------------------------------|--------------------------------|


 DABm
       e|--------------------------------------10----10-10-10----10-10------
       B|--------------------------------10-12-10h12-12-12-10h12-12-12------
       G|---7-9-9(11)-9(11)-9-7-9----/11------------------------------------
       D|-7-----------------------------------------------------------------
       A|-------------------------------------------------------------------
       E|-------------------------------------------------------------------


 GD
       e|----------|-------10----------------------------------------------|
       B|-12-10----|-10-12----10-12----10----------------------------------|
       G|-------12-|----------------11----9-11-7-9---7---------------------|
       D|----------|-------------------------------9---7-9---7-------------|
       A|----------|---------------------------------------9---7-9-5h7p5---|
       E|----------|-------------------------------------------------------|
 e|-15(17)—15r13------15(17)-15r13---15—----13(14)—13(14)---------13-15(17)|
 B|---------------15---------------------------------------15--15----------|
 G|------------------------------------------------------------------------|
 D|------------------------------------------------------------------------|
 A|------------------------------------------------------------------------|
 E|------------------------------------------------------------------------|
       e|-r-13-13(14)------------------------------------------------------|
       B|--------------15--------------------------------------------------|
       G|------------------------------------------------------------------|
       D|-----------------12-----------------------------------------------|
       A|------------------------------------------------------------------|
       E|------------------------------------------------------------------|


Verse x1

There you go. Thanx to Dane H for the end of the solo

END

+--------------------------------------------------------------------------+

| This file is the author's own work and represents their interpretation |
| of the song. You may only use this file for private study, scholarship, |
| or research. |
+--------------------------------------------------------------------------+


Ultimate-Guitar.Com © 2005


A Bm C D G
variations - click chord images
Transpose chords:
Tuning:
Cool service:
View: Size:
A  A  A
Rating:
Layout:
  • Currently 0/5 Stars.
  • 1
  • 2
  • 3
  • 4
  • 5
 
Accuracy:
  • Currently 0/5 Stars.
  • 1
  • 2
  • 3
  • 4
  • 5
 
click stars to rate
Chordie recommends:
Learn to play this song & others via video guitar lessons at JamPlay.com
Songbook:
Login to add this song to your songbook
Support the artist
Preview/buy this song
MSN Music
Why this non-profit ad?

 
login to add comments/video/corrections