Have You Ever Really Loved A Woman

Bryan Adams

E|------------------------|------------------------|------------------------|

B|------------------------|------------------------|----------------------1-|

G|------------------0---23|2--------------------023|2--------0-----------0-3|

D|------------------------|1-----------------------|1-----1-----1-----------|

A|------------------------|1-----------------------|3--3--------------------|

E|------------------------|------------------------|------------------------|

E|------2-----------------|------------------------|------2-----------2-----|

B|----3---3---------------|------8-----------4-----|----3---3-------3-------|

G|2---------2-------------|----8-----------5-------|--2-------2---2---------|

D|010---------------------|--8-----------5---------|0-----------0-----------|

A|------------------------|6-----------3-----------|------------------------|

E|------------------------|------------------------|------------------------|

E|------------------------|------8--656865---------|--------------3-3-------|

B|------3-----1---------/3|1-----6-------------1-3/|4-----------3--1-1------|

G|----3-------------3--0--|------5-----------5-2---|3-----------------3--2--|

D|--3----------------3----|----57----------7---3-3/|5-5---------3--1--------|

A|1-------------------5---|--------------8---------|------------------5--3--|

E|------------------------|------------------------|------------------------|

E|------------------------|------------------------|------------------------|

B|------------------------|------------------------|----------8-7-5-3-1-0---|

G|------------------2-----|------------------------|----------9-7-5-4-2-0-0-|

D|5-----4-----5-----4-----|------------------------|----------------------2-|

A|5-----5-----5-----------|------5-----------5-----|------------------------|

E|------------------------|3-----------3-----------|3-----------------------|


 DG
  vvvvvvvvvvvvvvvvvvvvvvvv sim. 
E|------------------------|------------------------|0-2-0--2---3-20-0-------|
B|----------353--8757~~~~~|--------0-1-1-3-5-5-8--7|-0-------01----3-57\5---|
G|2-------45--------------|--0-22--0-2-2-4-5-5-9---|-----0------------------|
D|0------0----------------|4-2-44------------x-----|--------0---------------|
A|------------------------|5----------------x------|------------------------|
E|------------------------|------------------------|------------------------|

wanted... you... one...
 AmDAmDAmD
E|----3-2-----------------|----------a-------------|-------------------0----|
B|0-----0--0-00-311-0-----|--55----ac--d-ca--------|-888888-------------3---|
G|0-----0--0----422-0-3---|--00-------------cb\97--|-999999\7----555555-----|
D|--------------------2---|--55--------------------|-aaaaaa\7----555555-----|
A|------------------------|0-0---------------------|------------------------|
E|------------------------|------------------------|------------------------|

she... last... tell...
 G
  vvvVvVvvvVvVvvvVvVv
E|--2-0--2-0----2-0-------|------3-------------3---|------------------------|
B|--3-3--333----3-3-------|3-----3--------4----4---|3-----------------------|
G|-----------4-4-4-----0--|2--0--0----------3---3--|2--------------0--2-----|
D|------------------------|--------0-----5----5----|4---------4-----2-0-----|
A|------------------------|--1------1/3----------0-|0--------5--5-----------|
E|3-----------3---------3-|------------------------|------------------2-----|

woman... woman... know...
-> / 2 \
E|------------------------|------------------------|------------------------|
B|------3-----1---------/3|1-----1-------------1-3-|4-----------7---5--3--2-|
G|----3-------2-----3-----|----2---2-----------2---|3-----3-----------------|
D|--3---------------5-----|--3-------3---------3---|5---5-------8-\66\55--3-|
A|1-----------------------|------------3-----------|------------------------|
E|------------------------|------------------------|------------------------|

breathe... feel... see...
 GsusG
     ->                    v vVvVvvvVvVvvvVvVvvvVvV vvvVvVvvvVvVvvvVvVvvvVvV
E|------------------------|------------------------|------------------------|
B|------------------------|------------------------|----------8-7-5-3-1-0---|
G|------------------2-----|------------------------|----------9-7-5-4-2-0-0-|
D|5---754-----5-----4-----|------------------------|----------------------2-|
A|5-----5-----5-----------|------5-----------5-----|------------------------|
E|------------------------|3-----------3-----------|3-----------------------|

eyes... love... you...
Wanted...
 DG
  vvvVvVvvvVvVvvvVvVvvvVvV sim.                    /7\             ->->
E|-------2-2--------------|------------------------|------------3-----------|
B|------------------------|--------0-1-1-3-5-5-8---|553530-----3-7555775----|
G|2------2-2--------------|--0-22--0-2-2-4-5-5-9---|---------45-------------|
D|0--------------------0--|4-2-44------------------|------------------------|
A|-------00-0-575799a97---|5-----------------------|------------------------|
E|------------------------|------------------------|-------3----------------|

you... one...
 DAmDAmD
E|D----3-2-3--30----------|------------------------|-----------0------------|
B|--3------0--0-3\1-0-----|--7-5--7-5----7-5--7-5--|-888888\----55555-5-----|
G|---------0----4\2-0-3---|--5-5--5-5----5-5--5-5--|-999999\-7--55555-5-7---|
D|--------------------2---|--44--4-4----4-4----4---|-aaaaaa\7-7-55555-5-----|
A|------------------------|------------------------|------------------------|
E|3-----------------------|------------------------|------------------------|

she... be... tell...
Bridge
 GEbFG322
E|------------------------|------------------------|---------77-------------|
B|------------------------|---------88-------------|8-888-88888-8-88888-8888|
G|0474<-------------------|8-88--8--88-8-88-88-8888|7-777-7777777-77777-7777|
D|---754-45\0-0-----------|8-88--8--88-8-88-88-8888|9-999-999--99-99999-9999|
A|------7-----------------|a-aa--a--aa-a-aa-aa-aaaa|a--aa-aaa--aa-aaaaa-aaaa|
E|------------------------|------------------------|------------------------|

Guitar 3 2
E|------------------------|------------------------|3-----------------3-----|
B|------------------------|------------------------|3-----------------3-----|
G|-----------------------8|8-----------------a---\\|0-----------------0-----|
D|-----------------------8|8-----------------a---\\|0-----------------0-----|
A|-----------------------6|6-----------------8---\\|------------------------|
E|------------------------|------------------------|3-----------------3-----|

woman... give... tenderness...
 DG
                           vvvVvVvvvVvVv       ->>          ->>
E|------------------------|----------------------65|3---------65----------53|
B|7-77777-7777777777------|0--0--0--------------34-|---------34----------4--|
G|5-55555-5555555555------|0--0--0-----------------|------------------------|
D|7-77777-7777777777------|0--0--0-----------------|------------------------|
A|5-55555-55555555555-----|------------------------|------------------------|
E|------------------------|------------------------|------------------------|
E|2-----0-----2-----3-----|3-----------------------|------------------------|
B|3-------3---------3-----|3-----------------------|8--8--a--8--8--a-88axxxx|
G|2---------2-------0-----|0-----------------------|8--8--8--8--8-78-888xxxx|
D|0-----------------0-----|0-----------------------|8-88--8-88--8--8-888xxxx|
A|------------------------|------------------------|------------------------|
E|------------------------|3-----------------------|------------------------|

She... you... (solo start)
D Bb F Bb F/A Fmaj7 F EXPANDED DOUBLE SIZE
vvvVvVvvvVvVvvvVvVv v vvvVvVvvvVvVvvvVvvvv v v v v V v V v v v V v V v v
v V v V v v v V v V
E|2-2--------232-2--------|-6d---------------------|------------------------------------------------|
B|---4-3---34---4-43------|----------8aba8---------|----------------------abd-b-a-b-a---------------|
G|---------2-----------3-5|7------78a-----a--a-----|--8-c8a--8c8a--------c------------c/e\c-a-------|
D|--------0-----------3---|------------------------|-a-a--------------------------------------------|
A|-------------------1----|-----------------8------|------------------------------------------------|
E|-------2----------------|------------------------|------------------------------------------------|

And when you
 Cm7

v ->
E|------------------------|------------------------|------------------------|
B|---4--------------------|------------------------|------------------------|
G|------53-3--7\-5--3--2--|0---20------0-----------|-------7-7-x--7-7x--x7--|
D|--5-----5---------------|0-----4-----2-----------|--5-5--5-5-x--5-5x------|
A|------------8\-6--5--3--|------5-----3-----------|--5-5--5-5-x--5-5x------|
E|------------------------|------------------------|----------------------54|

find... arms... love...
6/8 bar
 3232
E|--------3x3x|------------------------|------------------------|
B|-0-0-xxx0x0x|----------8-7-5-3-1-0---|----------<<<-2---------|
G|-0-0-xxx0x0x|----------9-7-5-4-2-0-0-|02------2420<0----------|
D|-0-0-xxx0x0x|----------------------2-|0-4-------424-----------|
A|------------|------------------------|------------------------|
E|3-----------|------------------------|------------------------|

Gtr 2
E|------------|
B|-8-8-8-8-8-8|
G|--7-7-7-7-7-|
D|------------|
A|------------|
E|------------|

Woman... you... Wanted...
EXPANDED DOUBLE SIZE
/3\
E|------------------------|------------------------------------------------|----3-2-3---------------|
B|--------0-1-1-3-5-5-8--7|5-753-5-3-0-------------------------------------|--3------0--0-----------|
G|--0-22--0-2-2-4-5-5-9---|-------------020-020--0-2-4-5-4-2-0---0---------|---4-4---0--0-------3---|
D|4-2-44------------x-----|----------------4---4---------------0-----------|5-----------2-0-----2---|
A|5----------------x------|----------------------------------------2-------|----------------3-2-----|
E|------------------------|------------------------------------------------|--------------------0-3-|

you... one...
She... last...
2 EXPANDED DOUBLE SIZE
E|---55--2-2-------0------|-----------0------------|------------------------------------------------|
B|---55--3-3-----------3--|-888888------55555-5----|--------------3---3---3-3-333-3-3-3-3-333-5-3-0-|
G|---55----2----245-------|-999999--7---55555--7---|2-420-------------------------------------------|
D|-------------0----------|-aaaaaa-7-7-5555555-----|0-----------------------------------------------|
A|0-----------------------|------------------------|------------------------------------------------|
E|------------------------|------------------------|3-----------------------------------------------|

tell... woman...
E|------------------------|------------------333---------------------------|------------3-----2-----|
B|-888888\---75555555-----|------------------000---0---1---3---3---5/7-7/8-|8-----7-----1-----3-----|
G|-999999\7--75555555-7---|474-0-------0-----000---------------------------|9-----7-----2-----2-----|
D|-aaaaaa\7---5555555-----|x-----4-2-4-------------------------------------|------7-----2-----0-----|
A|------------------------|x-----------------------------------------------|------------------------|
E|------------------------|------------------------------------------------|------------------------|

tell... woman...
tell...
Slowly
E|------------------------|------------------------------------------------||
B|------0-1/3/7-5-3-3\1-0-|0---------------1-0-----------------------------||
G|------------------------|----2---0---0-------2-2-----2-420---------------||
D|------0-2/4/7-5-4-4\2-0-|0-------------4----0----------------------------||
A|------------------------|----3---2---2-0---------------------------------||
E|3-----------------------|--------------------------3---------------------||

woman?
Lyrics:
verse 1
To really love a woman,
To understand her,
You gotta know her deep inside...
Hear every thought,
See every dream,
And give her wings when she wants to fly...
Then when you find yourself lying helpless in her arms,
You know you really love.... a woman.
chorus
When you love a woman you tell her that she's really wanted.
When you love a woman you tell her that she's the one.
Cause she needs somebody to tell her that it's gonna last.... forever,
so tell me hare you ever really, really, really ever loved.... a woman?
verse 2
To really love a woman,
Let her hold you,
'Til you know how she needs to be touched...
You've got to breathe her,
Really taste her,
'Til you can feel her in your blood...
And when you can see your unborn children in her eyes,
You know you really love.... a woman.
chorus
bridge
You've got to give her some faith,
Hold her tight,
A little tenderness,
You gotta treat her right...
She will be there for you,
Taking good care of you...
You really gotta love your woman, yeah
post-solo
And when you find yourself lying helpless in her arms,
You know you really love.... a woman.
chorus
outro
So tell me have you ever really, really, really ever loved a woman?
Oh, just tell me have you ever really, really, really ever loved a woman?
Other songs I've tabbed: Believe Me (Moist)
wanna get in touch with me?
via email: vvhat_is@hotmail.com

END

+--------------------------------------------------------------------------+

| This file is the author's own work and represents their interpretation |
| of the song. You may only use this file for private study, scholarship, |
| or research. |
+--------------------------------------------------------------------------+


Ultimate-Guitar.Com © 2005


Am Cm7 D Eb F G Gsus
variations - click chord images
Transpose chords:
Tuning:
Cool service:
View: Size:
A  A  A
Rating:
Layout:
  • Currently 3/5 Stars.
  • 1
  • 2
  • 3
  • 4
  • 5
 
Accuracy:
  • Currently 3/5 Stars.
  • 1
  • 2
  • 3
  • 4
  • 5
 
click stars to rate
Chordie recommends:
Learn to play guitar with video-based, online guitar lessons at JamPlay.com
Songbook:
Login to add this song to your songbook
Support the artist
Preview/buy this song
MSN Music
Why this non-profit ad?

 
login to add comments/video/corrections