"yes"; ?> by Unknown - guitar chords, guitar tabs and lyrics - chordie
America - Yes

Transcribed by Kelsey Terhorst
/ = slide up \ = slide down h = hammer on
G|------------------------------------------------------------/7-7-7--| D|---------------------------------------------0--0--0--0--0----------| A|-0--0--0--0--0--0--0--0--0--0--0--0--0--0---------------------------| E|--------------------------------------------------------------------|
-------/7-7-7--------/7-7-7--------------------------------------------| -0--0----------0--0----------------------------------------------------| -----------------------------0--0--0--0--0--0--------------------------| -----------------------------------------------2--2--2--2--2--2--2--2--|
----------------------------------------------------------------------| ----------------------------------------------------------------------| -4--4--4--4--------------4--4--4--4--------------2---0-----------2-0--| -------------2--2--2--2--------------2--2--2--2----------0--0--2------|
--------------------------------------------------------------------------| --------------------------------------0--0--0--0--0--0--0--0--0--0--0--0--| ---------2-0---0--------------0-------------------------------------------| -0--0--2-------------2--2--4-----4-2--------------------------------------|
(very fast) (slow down) -7-7-9-9-11-11-12-12-14-14-16-18-19--------------------------------------| -------------------------------------0--0--0--0--0--0--0--0--0--0--0--0--| -------------------------------------------------------------------------| -------------------------------------------------------------------------|
---------------------------------------------------/7-7-7---------/7-7-7--| -0--0--0----------------------------0--0--0--0--0-----------0--0----------| ----------0--0--0--0--0--0--0--0------------------------------------------| --------------------------------------------------------------------------|
-------/7-7-7-------------------------------------------------------------| -0--0---------------------------------------------------------------------| ---------------0--0--0--0--0--0--------------------------2----2----2----2-| ---------------------------------2--2--2--2--2--2--2--2-------------------|
--------------------------------------------------------------------------| --------------------------------------------------------------------------| -2----2----2----2----2----4----2----2----2----2----2----4------5----------| --------------------------------------------------------------------------|
-------16-14--------------------------------11-13-14-13-11------------| -12-----------16-14-12--14---------11-12-14-----------------14--12-11-| ----------------------------12-14-------------------------------------| ----------------------------------------------------------------------|
------------11----------------------------------------11-13-14-13--11--| ---------14-------14----12----12h14---------11-12-14-------------------| -14--12------------------------------12-14-----------------------------| -----------------------------------------------------------------------|
----------------------------------------------14----13----11-------------| -14--12-11---------11-12----11----------14----------------------14-12-11-| -----------14--12-----------------14-------------------------------------| -------------------------------------------------------------------------|
---------------------------------------------------------------------------| ---------------------------------------------------------------------------| -14-12---------------------------------------------------------------------| -------14-12-9-5--5--4h5--4h5--4h5---5--5--4h5--4h5--4h5---5--5--4h5--4h5--|
----------------------------------------------------------------------| ----------------------------------------------------------------------|
-----------------------------2--2--2--2-------------------------------| -4h5---5--5--4h5--4h5--4h5---------------2--2--2--2--0--0--0--0--0----|
--------------------------------------------4-4-6-7--7-5h7-7-7-5h7-7-7-| ---------------------------------0--4--5--7----------------------------| -------0-0--0--0--0----------------------------------------------------| -2--4---------------2-2--2--2--2---------------------------------------|
--------------------------------------------------------------------------| -4-4-5-5-6-6-----------------------4-------------4------------------------| -------------0-0--0--0--0------4-------4-------4---22--222--222--222--222-| ---------------------------2---------------2------------------------------|
----------------2h4--42h4--42h4--42h4--42h4--42h4--42h4--42h4--42h4--2-| -----------------------------------------------------------------------| -222--222--222---------------------------------------------------------| -----------------------------------------------------------------------|
----------------2h4--42h4--42h4--42h4--42h4--42h4--42h4--42h4--42h4--2-| --------2-2-4-4--------------------------------------------------------| -4--4-4----------------------------------------------------------------| -----------------------------------------------------------------------|
-----------------------------------------------------------------------| --------2-2-4-4--------------------------------------------------------| -4--4-4---------22--222--222--222--222--222--222--222--222--2--4-------| -----------------------------------------------------------------------| (ver fast) |-----------------555577775555-----|----14-14-14-14-12-12-12-12-11-11-11-11-| |-0000444455557777------------7777-|x4--------------------------------------| |----------------------------------|----------------------------------------| |----------------------------------|----------------------------------------|
-------------------------------------------------------------------------| -14-14-14-14-12-12-12-12-10-10-10-10-------------------------------------| -------------------------------------14-14-14-14-12-12-12-12-12-12-12-12-| -------------------------------------------------------------------------|
---------------------------------------------------------------------| ---------------------------------------------------------------------| -10-10-10-10-9-9-9-9-------------------------------------------------| ---------------------12-12-12-12-10-10-10-10-8-8-8-8-7-7-7-7-5-5-5-5-|
-------------------------------------------------5-5-5-5---------| ---------------------------------5-5-5-5-7-7-7-7---------5-5-5-5-| ---------4-4-4-4-5-5-5-5-7-7-7-7---------------------------------| -5-5-5-5---------------------------------------------------------|
---------6-6-6-6-7-7-7-7-9-9-9-9-11-11-11-11-12-12-12-12-14---| -7-7-7-7------------------------------------------------------| --------------------------------------------------------------| --------------------------------------------------------------|
|---------------------------------5-5-5-5-7-7-7-7-------------------------| |-0-0-0-0-4-4-4-4-5-5-5-5-7-7-7-7-----------------7-7-7-7-0-0-0-0-4-4-4-4-| |-------------------------------------------------------------------------| |-------------------------------------------------------------------------|
-----------------5-5-5-5-7-7-7-7-12-12-12-12-19\----| -5-5-5-5-7-7-7-7------------------------------------|x2 ----------------------------------------------------| ----------------------------------------------------|
The End!!! that took a long time to transcribe. Hope you














variations - click chord images
Transpose chords:
Tuning:
Cool service:
View: Size:
A  A  A
Rating:
Layout:
  • Currently 0/5 Stars.
  • 1
  • 2
  • 3
  • 4
  • 5
 
Accuracy:
  • Currently 5/5 Stars.
  • 1
  • 2
  • 3
  • 4
  • 5
 
click stars to rate
Chordie recommends:
Check out JamPlay.com for online video guitar lessons
Songbook:
Login to add this song to your songbook
Support the artist
Preview/buy this song
MSN Music
Why this non-profit ad?

 
login to add comments/video/corrections