"yes"; ?> Akap by Imago - guitar chords, guitar tabs and lyrics - chordie

Akap

Imago

      The chords of the intro are A--A/G#--F#m--A/G#-A,


 AA/G#F#mA
 G|------------------------------------------|
 D|------------------------------------------|
 A|------------------------------------------|
 E|--4--5-5--5-5--4-4--4-4--2-2--2-2--4-5----|


Verse 1:

 AEF#mD
 G|-------------------------------------------------------|
 D|-------------------------------------------------------|
 A|----------------------------------------5-5--5-5-------|
 E|--5-5--5-5--4-2-0-4--4-2-0-4--2-2--2-2-----------------|

Nagtatanong...bakit...sumabay...ng iyong ulo,

 AEF#mDE
 G|------------------------------------------------------------------|
 D|------------------------------------------------------------------|
 A|----------------------------------------5-5--5-5--7-7--7-7--------|
 E|--5-5--5-5--4-2-0-4--4-2-0-4--2-2--2-2----------------------------|

Nagtataka.....simple....sana.......ika'y....lumayo.

Chorus 1:
 AF#mDA
 G|--------------------------------------------------------------|
 D|--------------------------------------------------------------|
 A|--------------------------------------------------------------|
 E|--5-5--5-5--2-2--2-2--10-10--10-10--5-5--5-5--5/7\5--2p0------|

Sabihin...lahat ng....mo............ko oh,

 AF#mDA
 G|---------------------------------------------------------|
 D|---------------------------------------------------------|
 A|---------------------------------------------------------|
 E|--5-5--5-5--2-2--2-2--10-10--10-10--5-5--5-5--/7--(5)----|

Ibaling....ang.......mo............ko oh.

Verse 2:

 AEF#mD

 G|-------------------------------------------------------|
 D|-------------------------------------------------------|
 A|----------------------------------------5-5--5-5-------|
 E|--5-5--5-5--4-2-0-4--4-2-0-4--2-2--2-2-----------------|

Pikit mata....kung......buwan at....pati pa'ng sapatos kong suot,

 AEF#mDE
 G|------------------------------------------------------------------|
 D|------------------------------------------------------------------|
 A|---------------------------------------------5-5--5-5--7-7--7-7---|
 E|--5-5-(7\5-2p0)--4-2-0-4--4-2-0-4--2-2--2-2-----------------------|

Nagtataka..........simple....sana.......ika'y....lumayo.

Chorus 2:

 AF#mDA
 G|--------------------------------------------------|
 D|--------------------------------------------------|
 A|--------------------------------------------------|
 E|--5-5--5-5--2-2--2-2--10-10--10-10--5-5--5-5------|

Sabihin...lahat ng....mo............ko oh,

 AF#mDA
 G|--------------------------------------------------|
 D|--------------------------------------------------|
 A|--------------------------------------------------|
 E|--5-5--5-5--2-2--2-2--10-10--10-10--5-5--5-5------|

Ibaling....ang.......mo............ko oh.

Bridge:

 EA
 G|---------------------------------------------------|
 D|---------------------------------------------------|
 A|--7777-7777----------------------------------------| 4x
 E|-------------------------5555-5555-----------------|

Sasamahan ka sa tamis, sasamahan ka sa dilim.

 EA
 G|---------------------------------------------------|
 D|---------------------------------------------------|
 A|--7777-7777----------------------------------------| 4x
 E|----------------99-7-5--99-7-5---------------------|

Ooohhhh...ooohhh...ooohhh...ooohhh...

...then, Repeat Chorus 2:

Outro 1:

 G|-----------------------------------------------------------------------------------|
 D|-----------------------------------------------------------------------------------|
 A|-----------------------------------------------------------------------------------|
 E|--5555-5/7-77-7/9-99-9/12-1212--\2222-2/5-55-5\2-2222-7-9-10-/12-/14-/17-\5~-------|
 G|-----------------------------------------------------------------------------------|
 D|-----------------------------------------------------------------------------------|
 A|-----------------------------------------------------------------------------------|
 E|--5/7-77-5-9999-9\7-77-7/9-12--\2222-2/5-55-5\2-2222-7-9-10-/12-/14-/17-\5~--------|


Outro 2:

 G|-----------------------------------------------------------------------------------|
 D|-----------------------------------------------------------------------------------|
 A|-----------------------------------------------------------------------------------|
 E|--5555-x-5555\2-2222-x-222-7-9-10101010-x-101010-12-10-9-5~------------------------|


Legend:

/ -slide up
\ -slide down
~ -vibrato
p -pull off
x -palm mute

Dapat matalas ang mga pandinig nyo kung gusto nyong magbass,
That's the first rule, kya pgcnabi mong mali 'to...BINGI KA!!!
That's all...sana matulungan kayo nito '_' !!!

END

+--------------------------------------------------------------------------+

| This file is the author's own work and represents their interpretation |
| of the song. You may only use this file for private study, scholarship, |
| or research. |
+--------------------------------------------------------------------------+


Ultimate-Guitar.Com © 2005


A A/G# D E F#m
variations - click chord images
Transpose chords:
Tuning:
Cool service:
View: Size:
A  A  A
Rating:
Layout:
  • Currently 0/5 Stars.
  • 1
  • 2
  • 3
  • 4
  • 5
 
Accuracy:
  • Currently 0/5 Stars.
  • 1
  • 2
  • 3
  • 4
  • 5
 
click stars to rate
Chordie recommends:
Learn to play guitar with video-based, online guitar lessons at JamPlay.com
Songbook:
Login to add this song to your songbook
Support the artist
Preview/buy this song
MSN Music
Why this non-profit ad?

 
login to add comments/video/corrections