""; ?> insertsongandartist - guitar chords, guitar tabs and lyrics - chordie

Love Walks In

Van Halen





 Intro:
  C Em Am F-G (2x)
 Pós-intro:
  F Am Dm Bb-C (2x)
[Verso:] Dm-Dm(5+) C-Dm Dm-Dm(5+) C-Bb-Am-Am (2x)

 Pré-refrão:
  F-G-Am-Am F-G (2x)
 Refrão:
  C Em Am F-G (2x)
 Solo:
  F Am Dm Bb-C (2x) C Em Am F-G (2x)
 Final:
  F Am Dm Bb-C (4x) F!...

Ordem da música:
 Intro
(0:00)  
 Pós-intro
(0:23)  
 Verso 1
(0:45)  
 Pré-refrão 1
(1:07)  
 Refrão 1
(1:18)  
 Verso 2
(1:41)  
 Pré-refrão 2
(2:02)  
 Refrão 2
(2:13)  
 Solo
(2:36)  
 Verso 3
(3:21)  
 Pré-refrão 3
(3:43)  
 Refrão 3
(3:54)  
 Final
(4:16)  

Teblaturas:
===========

 Intro:
(0:00)  
 CEmAmF-G
e|---------------------------------------------------------------------|
B|---------5--6--5--------5-8--6--5----------5--6--5-------------------|
G|-----5-7--------------5----------------5-7------------5-----5--4--5--|
D|---5----------------5----------------5-------------------7-----------|
A|---------------------------------------------------------------------|
E|---------------------------------------------------------------------|


 CEmAmF-G
e|---------------------------------------------------------------------|
B|---------5--6--8--------5-8--6--5----------5--6--5-------------------|
G|-----5-7--------------5----------------5-7------------5-----5--4--5--|
D|---5----------------5----------------5-------------------7-----------|
A|---------------------------------------------------------------------|
E|---------------------------------------------------------------------|


 Pós-intro:
(0:23)  
 FAmDmBb-C
e|----5--6-5-------5--6-5-------5--6-5----5--------------|
B|-8------------8------------8---------------6----6--5---|
G|----------------------------------------------7------5-|
D|-------------------------------------------------------|
A|-------------------------------------------------------|
E|-------------------------------------------------------|


 FAmDmBb-C
e|----5--6-5-------5--6-5-------5--6-5-------------------|
B|-8------------8------------8---------------------------|
G|-------------------------------------------------------|
D|-------------------------------------------------------|
A|-------------------------------------------------------|
E|-------------------------------------------------------|


Letra Cifrada:
==============

 Intro:
(0:00)  C Em Am F-G (2x)
 Pós-intro:
(0:23)  F Am Dm Bb-C (2x)

 Verso 1:
(0:45)  
 Dm-Dm(5+
Contact!
 C-Dm
Is all it takes
 Dm-Dm(5+C-Bb-Am-Am
    To change your life, to lose your place in time 
 Dm-Dm(5+
   Contact!
 C-Dm
Asleep or awake
 Dm-Dm(5+C-Bb-Am-Am
   Coming around, you may wake up to find 

 Pré-refrão 1:
(1:07)  
 F-G-Am-Am
   Questions deep 
 F-G
   Within your eyes
 F-G-Am-Am
   Now more than ever 
 F-Am
   You realize

 Refrão 1:
(1:18)  
 C
   And then you sense a change
 Em
   Nothin' feels the same
 AmF
   All your dreams are strange
 -G
Love comes walkin' in
 C
   Some kind of alien
 Em
   Waits for the opening
 AmF-G
   Simply pulls a string 

 Verso 2:
(1:41)  
 Dm-Dm(5+
   Another world!
 C-Dm
   Some other time
 Dm-Dm(5+C-Bb-Am-Am
   You lay your sanity, on the line
 Dm-Dm(5+
   Familiar faces!
 C-Dm
   Familiar sights!

 Dm-Dm(5+
   Reach back, remember with
 C-Bb-Am-Am
 All your might

 Pré-refrão 2:
(2:02)  
 F-G-Am-Am
Uh, and there she stands in a
 F-G
   Silken gown
 F-G-Am-Am
   Silver lights
 F-G
   Shinin' down!

 Refrão 2:
(2:13)  
 C
   And then you sense a change
 Em
   Nothin' feels the same
 AmF
   All your dreams are strange
 -G
Love comes walkin' in
 C
   Some kind of alien
 Em
   Waits for the opening
 AmF
   Simply pulls a string
 -G
Love comes walkin'
F*(Solo)
In!!!

 Solo:
(2:36)  
F Am Dm Bb-C (2x)
C Em Am F-G (2x)

 Verso 3:
(3:21)  
 Dm-Dm(5+
Oh, sleep and dream
 C-Dm
That's all I craaaave!
 Dm-Dm(5+C-Bb-Am-Am
   I travel far across the milky way
 Dm-Dm(5+
   To my master
 C-Dm
I become a slave!
 Dm-Dm(5+
   'Til we meet again
 C-Bb-Am-Am
Some other day

 Pré-refrão 3:
(3:43)  
 F-G-Am-Am
Where silence speaks 
 F-G
As loud as war
 F-G-Am-Am
   Earth returns to what it
 F-G
   Was before

 Refrão 3:
(3:54)  
 C
   And then you sense a change
 Em
   Nothin' feels the same
 AmF
   All your dreams are strange
 -G
Love comes walkin' in
 C
Some kind of alien
 Em
   Waits for the opening
 Am
   Simply
 F-G
Pulls a string love comes walkin' in

 Final:
(4:16)  
 FAmDmBb-C
           Love comes walkin' in
 FAmDm
      Baby, pull the string
 Bb-C
   Love comes walkin' in
 FAmDmBb-CF
           Love comes walkin' in, yeah!
 Am
   Hãh-ãh!
 DmBb
      Ye-eah!
 -C
   Oh-oh!
F!...
Uuuuuh!

===============
Dm(5+) = XX0331

_____________________________
Transcrito por Rafael Librenz
librenz@gmail.com
Data: 29.Junho.2005
Local: Ijuí, RS, Brasil

END

+--------------------------------------------------------------------------+

| This file is the author's own work and represents their interpretation |
| of the song. You may only use this file for private study, scholarship, |
| or research. |
+--------------------------------------------------------------------------+


Ultimate-Guitar.Com © 2005