eToCache5 = ""; ?> Democracy In Kind by State Radio - guitar chords, guitar tabs and lyrics - chordie

Democracy In Kind

State Radio


| Ultimate Guitar Tabs Archive - your #1 source for tabs! | | http://www.ultimate-guitar.com/ | | | | Over 200,000 guitar, guitar pro and bass tabs! Also lessons, news, | | columns and guitar forums! |
Artist: State Radio Song: Democracy In Kind
State Radio Peace Between Nations Democracy in Kind Tabbed by Owen Sakovics BASS: Eb Ab Db Gb www.tabsinonefellswoop.com
--------------------------| -0h2-2--2p0---------------| x4 ------------3--0-0-0-0-0--| --------------------------|
-------------------------------------------------------------------| -------------------------------------------------------------------| x1 -0--0-0--0--0-0------------0--0-0--0--0-0--0--0-0----------0--0-0--| -----------------1--1-1-s3-------------------------3--3-3----------|
------------------------------------| ------------------------------------| x1 -0--0-0------------------0--0-0-----| ---------1--1-1--3--3-3----------3--|
-----------------------------------------------------| -----------------------------------------------------| x1 -0-0-0-0-0-0-0-0-3-3-3-3-3-3-3-3------------------0--| ---------------------------------3-3-3-3-3-3-3-3-----|
-------------2------2---------------------------------| --------------------------5------5--------------------| x1 ----------0-----0-0------------------0-0-0-0-0-0-0-0--| -1-1-1-1---------------3-----3-3---3------------------|
-------------2------2-----4------4---| -------------------------------------| x1 ----------0-----0-0------------------| -1-1-1-1---------------0----0-0---0--|
--------------------------| -0h2-2--2p0---------------| x4 ------------3--0-0-0-0-0--| --------------------------|
---------------------------------------------------------------------| ---------------------------------------------------------------------| x1 -0-0-0-0-0-0-0-0---------------------------------0-0-0-0-0-0-0-0-----| -----------------1-1-1-1-1-1-1-1-3-3-3-3-3-3-3-3------------------3--|
-----------------------------------------------------| -----------------------------------------------------| x1 -0-0-0-0-0-0-0-0-3-3-3-3-3-3-3-3------------------0--| ---------------------------------3-3-3-3-3-3-3-3-----|
-------------2------2--------------------4--5-7--| --------------------------5-----5-----7----------| x1 ----------0-----0-0----------------0-------------| -1-1-1-1---------------3----3-3------------------|
-------------2------2-------4------4--|
----------------------0---------------| x1 ----------0-----0-0-------------------| -1-1-1-1-----------------0-----0-0----|
-------------------s7--4-5--s7--5--4-------------4--| -0------------------------------------7-5--5-7-7----| x1 ---------0------------------------------------------| -----3------5-7--7----------------------------------|
-5-5-5---------------------------------------------------------| --------5-5-5--7-7-7------9-------------5-5-5--7-7-7--7-7-5----| x1 ----------------------7-7---7-7--8-8-8----------------------7--| ---------------------------------------------------------------|
---------------------------------------------------------------| --------------------------2------------------------------------| x1 -3-3-3---------0-0-0---------------------------0-0-0--0-0------| --------3-3-3---------0-0---0-0--1-1-1--3-3-3-------------3-0--|
-----------------------2----------------------------------| --------------5-----------------2-------------------------| x1 -3-3-3-------------0-0---0-----------------------------0--| -------3--3-3---3-----------0-0---0-0--1-1-0-1--3-3-3-----|
--------------------------------------------| --------------------------------------0-2---| x1 ----------0--0-0----------0--0-2-2h3--------| -1-1-1-1----------3--3-3--------------------|
-------------2--------2-----| ----------------------------| x1 ----------0-----0-0-0-------| -1-1-1-1-----------------0--|
-----------------------------------------------| -----------------------------------------------| x1 -3h5-5-5-5p3----3------3h5-5-5-5p3----3--------| -------------5----5-5--------------5----5-5-5--|
-----------------------------------------------| -----------------------------------------------| x1 -3h5-5-5-5p3----3------3h5-5-5-5p3----3-2-1-0--| -------------5----5-5--------------5-----------|
-----------------------------------------------| -----------------------------------------------| x1 -3h5-5-5-5p3----3------3h5-5-5-5p3----3--------| -------------5----5-5--------------5----5-5-5--|
-----------------------------------------------| -----------------------------------------------| x2 -3h5-5-5-5p3----3------3h5-5-5-5p3----3-2-1-0--| -------------5----5-5--------------5-----------|
---------------------------------------------| ---------------------------------------------| x1 -3h5-5-5-5p3----3------3h5-5-5-5p3----3------| -------------5----5-5--------------5----5-5--|
END
+--------------------------------------------------------------------------+ | This file is the author's own work and represents their interpretation | | of the song. You may only use this file for private study, scholarship, | | or research. | +--------------------------------------------------------------------------+
Ultimate-Guitar.Com © 2005













variations - click chord images
Transpose chords:
Tuning:
Cool service:
View: Size:
A  A  A
Rating:
Layout:
  • Currently 0/5 Stars.
  • 1
  • 2
  • 3
  • 4
  • 5
 
Accuracy:
  • Currently 0/5 Stars.
  • 1
  • 2
  • 3
  • 4
  • 5
 
click stars to rate
Chordie recommends:
Learn how to play guitar at JamPlay.com
Songbook:
Login to add this song to your songbook
Support the artist
Preview/buy this song
MSN Music
Why this non-profit ad?

 
login to add comments/video/corrections