To The Ends Of The Earth

Hillsong

|--0--0--0--0--0--0--0--0--0--0--0--0--0--0--0--0--0--0-|

|--8--7--5--3--5--7--8--7--5--3--5--7--8--7--5--3--5--7-|
|--7-----------------7-----------------7----------------|
|-------------------------------------------------------|
|-------------------------------------------------------|
|-------------------------------------------------------|
|-------------------------------------------------------|
|-------------------------------------------------------|
|-------------------------------------------------------|
|--2-----------------5--4-------------0--2--4-----------|
|-------3-------------------------------------3---------|
|-------------------------------------------------------|
|--0--0--0--0--0--0--0--0--0--0--0--0--0--0--0--0--0--0-|
|--8--7--5--3--5--7--8--7--5--3--5--7--8--7--5--3--5--7-|
|--7-----------------7-----------------7----------------|
|-------------------------------------------------------|
|-------------------------------------------------------|
|-------------------------------------------------------|
|-------------------------------------------------------|
|-------------------------------------------------------|
|-------------------------------------------------------|
|--5-----------7---2------5----7------------------------|
|---------------------3---------------------------------|
|-------------------------------------------------------|
|----7h8-7h8-7h8-7h8--5h7-5h7-3h5-3h5-5h7-5h7-----------|
|-------------------------------------------------------|
|-------------------------------------------------------|
|-------------------------------------------------------|
|-------------------------------------------------------|
|-------------------------------------------------------|
|--0--0--0--0--0--0--0--0--0--0--0--|
|--8--7--5--3--5--7--8--7--5--3--5--|
|--7-----------------7--------------|
|-----------------------------------|
|-----------------------------------|
|-----------------------------------|
|------------------------------------|
|------------------------------------|
|--0--2---4----------5-----------7---|
|-----------3------------------------|
|------------------------------------|
|------------------------------------|

 EmC2GD

|--0--0--0--0--3--3--3--3--3--3--3--3--2--2--2--2----|
|--0--0--0--0--3--3--3--3--3--3--3--3--3--3--3--3----|
|--0--0--0--0--5--5--5--5--4--4--4--4--2--2--2--2----|
|--2--2--2--2--5--5--5--5--5--5--5--5--0--0--0--0----|
|--2--2--2--2--3--3--3--3--5--5--5--5----------------|
|--0--0--0--0--------------3--3--3--3----------------|


VERSE:
 EmC2GDEmC2
|-0--0--3--3--3--3--3--2--2--0--0--0--3--3--3--3-----|
|-0--0--3--3--3--3--3--3--3--0--0--0--3--3--3--3-----|
|-0--0--5--5--4--4--4--2--2--0--0--0--5--5--5--5-----|
|-2--2--5--5--5--5--5--0--0--2--2--2--5--5--5--5-----|
|-2--2--3--3--5--5--5--------2--2--2--3--3--3--3-----|
|-0--0-----------------------0--0--0-----------------|

Love unfailing, overtaking my heart
 GDEmC2G
|--3--3--3--2--2--0--0--3--3----3--3--3--3-----------|
|--3--3--3--3--3--0--0--3--3----3--3--3--3-----------|
|--0--0--0--2--2--0--0--5--5----4--4--4--4-----------|
|--0--0--0--0--0--2--2--5--5----5--5--5--5-----------|
|--2--2--2--------2--2--3--3----5--5--5--5-----------|
|--3--3--3--------0--0----------3--3--3--3-----------|

You take me in, finding peace again
 GDC2
|-3--3--2--2--2--2----3--3--3--3---------------------|
|-3--3--3--3--3--3----3--3--3--3---------------------|
|-0--0--2--2--2--2----5--5--5--5---------------------|
|-0--0--0--0--0--0----5--5--5--5---------------------|
|-2--2----------------3--3--3--3---------------------|
|-3--3-----------------------------------------------|

Fear is lost in all You are

PRE-CHORUS:
 DEm
|--2---2---2---2---2---2---2---2---2---2--0--0-|
|--3---3---3---3---3---3---3---3---3---3--0--0-|
|--2---2---2---2---2---2---2---2---2---2--0--0-|
|--0---0---0---0---0---0---0---0---0---0--2--2-|
|-----------------------------------------2--2-|
|-----------------------------------------0--0-|

And I would give the world to tell You story
 C2
|---0---0---0---0---0---0--0---0--3--3--3--3---|
|---0---0---0---0---0---0--0---0--3--3--3--3---|
|---0---0---0---0---0---0--0---0--5--5--5--5---|
|---2---2---2---2---2---2--2---2--5--5--5--5---|
|---2---2---2---2---2---2--2---2--3--3--3--3---|
|---0---0---0---0---0---0--0---0---------------|

'cause I know that You've called me

 G
|--3---3---3---3---3--3--3--3--3--------------|
|--3---3---3---3---3--3--3--3--3--------------|
|--5---5---5---5---5--0--0--0--0--------------|
|--5---5---5---5---5--0--0--0--0--------------|
|--3---3---3---3---3--2--2--2--2--------------|
|---------------------3--3--3--3--------------|

I know that You've called me
 DC2
|--2---2---2---2---2---2---2---2---2--3--3--3--3-|
|--3---3---3---3---3---3---3---3---3--3--3--3--3-|
|--2---2---2---2---2---2---2---2---2--5--5--5--5-|
|--0---0---0---0---0---0---0---0---0--5--5--5--5-|
|-------------------------------------3--3--3--3-|
|------------------------------------------------|

I've lost myself for good within Your promise,
 EmC2

|--0--0--0--0--0--0--0--0--3--3--3--3------------|
|--0--0--0--0--0--0--0--0--3--3--3--3------------|
|--0--0--0--0--0--0--0--0--5--5--5--5------------|
|--2--2--2--2--2--2--2--2--5--5--5--5------------|
|--2--2--2--2--2--2--2--2--3--3--3--3------------|
|--0--0--0--0--0--0--0--0------------------------|

I won't hide it,I won't hide it.

CHORUS:
 GD
|-3---3---3---3---3---3---3--2---2---2---2-------|
|-3---3---3---3---3---3---3--3---3---3---3-------|
|-0---0---0---0---0---0---0--2---2---2---2-------|
|-0---0---0---0---0---0---0--0---0---0---0-------|
|-2---2---2---2---2---2---2----------------------|
|-3---3---3---3---3---3---3----------------------|

Jesus I believe in You and I would go

 Am7C2
|-----0---0---0---0---0---0---0---3--3--3--3-----|
|-----1---1---1---1---1---1---1---3--3--3--3-----|
|-----0---0---0---0---0---0---0---5--5--5--5-----|
|-----2---2---2---2---2---2---2---5--5--5--5-----|
|-----0---0---0---0---0---0---0---3--3--3--3-----|
|------------------------------------------------|

to the ends of the earth, to the ends of the earth

 G
|-3---3---3---3---3---3---3---3---3--------------|
|-3---3---3---3---3---3---3---3---3--------------|
|-4---4---4---4---4---4---4---4---4--------------|
|-5---5---5---5---5---5---5---5---5--------------|
|-5---5---5---5---5---5---5---5---5--------------|
|-3---3---3---3---3---3---3---3---3--------------|

For You alone are the Son of God

 F2Am7C2
|--1---1---1---1---1---1---1----0--0--0--0---3--3-|
|--1---1---1---1---1---1---1----1--1--1--1---3--3-|
|--2---2---2---2---2---2---2----0--0--0--0---5--5-|
|--3---3---3---3---3---3---3----2--2--2--2---5--5-|
|-------------------------------0--0--0--0---3--3-|
|-------------------------------------------------|

And all will see, that You are God, You are God.

INTERLUDE:
Guitar 1:
 EmC2GDEmC2GD
|----------------------------------------------------------|
|-7/8--7-------7-7/8-7-------7-7/8-7-------7-7/8-7---------|
|--------9-7-9---------9-7-9---------9-7-9---------9-7-7-9~|
|----------------------------------------------------------|
|----------------------------------------------------------|
|----------------------------------------------------------|

| Guitar 2: |
|----------------------------------------------------------|
|-5----5-----5-----5-----5-----5-----5-----5-----5~--------|
|---7-----7-----7-----7-----7-----7-----7-----7------------|
|----------------------------------------------------------|
|----------------------------------------------------------|
|----------------------------------------------------------|

VERSE:
Guitar 1:
 EmC2GDEmC2
|-0--0--3--3--3--3--3--2--2--0--0--0--3--3--3--3--------|
|-0--0--3--3--3--3--3--3--3--0--0--0--3--3--3--3--------|
|-0--0--5--5--4--4--4--2--2--0--0--0--5--5--5--5--------|
|-2--2--5--5--5--5--5--0--0--2--2--2--5--5--5--5--------|
|-2--2--3--3--5--5--5--------2--2--2--3--3--3--3--------|
|-0--0-----------------------0--0--0--------------------|

| Guitar 2: |

|----------------------------10--10--10--10--0--0--0--0-|
|-----------------------------8---8---8---8--8--8--8--8-|
|-----------------------------9---9---9---9--9--9--9--9-|
|-------------------------------------------------------|
|-------------------------------------------------------|
|-------------------------------------------------------|      

Love unfailing, overtaking my heart
Guitar 1:
 GDEmC2
|--3--3--3--2--2--0--0--3--3---------------|
|--3--3--3--3--3--0--0--3--3---------------|
|--0--0--0--2--2--0--0--5--5---------------|
|--0--0--0--0--0--2--2--5--5---------------|
|--2--2--2--------2--2--3--3---------------|
|--3--3--3--------0--0---------------------|

|Guitar 2: |
|-----0--0--0--0---0--0--0--0--------------|
|-----8--8--7--7---8--8--5--5--------------|
|-----7--7--7--7---9--9--5--5--------------|
|------------------------------------------|
|------------------------------------------|
|------------------------------------------|

You take me in, finding peace again
Guitar 1:
 GDC2
|-3--3--2--2--2--2----3--3--3--3---------------------|
|-3--3--3--3--3--3----3--3--3--3---------------------|
|-0--0--2--2--2--2----5--5--5--5---------------------|
|-0--0--0--0--0--0----5--5--5--5---------------------|
|-2--2----------------3--3--3--3---------------------|
|-3--3-----------------------------------------------|

|Guitar 2: |
|-------------------------0--0--0--0--0--0-----------|
|--8--8--7--7--7--7-------5--5--5--5--5--5-----------|
|--7--7--7--7--7--7----------------------------------|
|----------------------------------------------------|
|----------------------------------------------------|
|----------------------------------------------------|

Fear is lost in all You are
PRE-CHORUS:
 DEm
|--2---2---2---2---2---2---2---2---2---2--0--0-|
|--3---3---3---3---3---3---3---3---3---3--0--0-|
|--2---2---2---2---2---2---2---2---2---2--0--0-|
|--0---0---0---0---0---0---0---0---0---0--2--2-|
|-----------------------------------------2--2-|
|-----------------------------------------0--0-|

And I would give the world to tell You story
 C2
|---0---0---0---0---0---0--0---0--3--3--3--3---|
|---0---0---0---0---0---0--0---0--3--3--3--3---|
|---0---0---0---0---0---0--0---0--5--5--5--5---|
|---2---2---2---2---2---2--2---2--5--5--5--5---|
|---2---2---2---2---2---2--2---2--3--3--3--3---|
|---0---0---0---0---0---0--0---0---------------|

'cause I know that You've called me

 G
|--3---3---3---3---3--3--3--3--3--------------|
|--3---3---3---3---3--3--3--3--3--------------|
|--5---5---5---5---5--0--0--0--0--------------|
|--5---5---5---5---5--0--0--0--0--------------|
|--3---3---3---3---3--2--2--2--2--------------|
|---------------------3--3--3--3--------------|

|Guitar 2: |
|--------------------------8-7----------------|
|------------------------------10--8--7-------|
|---------------------------------------------|
|---------------------------------------------|
|---------------------------------------------|
|---------------------------------------------|

I know that You've called me
 DC2
|--2---2---2---2---2---2---2---2---2--3--3--3--3-|
|--3---3---3---3---3---3---3---3---3--3--3--3--3-|
|--2---2---2---2---2---2---2---2---2--5--5--5--5-|
|--0---0---0---0---0---0---0---0---0--5--5--5--5-|
|-------------------------------------3--3--3--3-|
|------------------------------------------------|

I've lost myself for good within Your promise,
 EmC2
|--0--0--0--0--0--0--0--0--3--3--3--3------------|
|--0--0--0--0--0--0--0--0--3--3--3--3------------|
|--0--0--0--0--0--0--0--0--5--5--5--5------------|
|--2--2--2--2--2--2--2--2--5--5--5--5------------|
|--2--2--2--2--2--2--2--2--3--3--3--3------------|
|--0--0--0--0--0--0--0--0------------------------|

I won't hide it,I won't hide it.

CHORUS:
 GD
|-3---3---3---3---3---3---3--2---2---2---2-------|
|-3---3---3---3---3---3---3--3---3---3---3-------|
|-0---0---0---0---0---0---0--2---2---2---2-------|
|-0---0---0---0---0---0---0--0---0---0---0-------|
|-2---2---2---2---2---2---2----------------------|
|-3---3---3---3---3---3---3----------------------|

Jesus I believe in You and I would go

 Am7C2
|-----0---0---0---0---0---0---0---3--3--3--3-----|
|-----1---1---1---1---1---1---1---3--3--3--3-----|
|-----0---0---0---0---0---0---0---5--5--5--5-----|
|-----2---2---2---2---2---2---2---5--5--5--5-----|
|-----0---0---0---0---0---0---0---3--3--3--3-----|
|------------------------------------------------|

to the ends of the earth, to the ends of the earth

 G
|-3---3---3---3---3---3---3---3---3--------------|
|-3---3---3---3---3---3---3---3---3--------------|
|-4---4---4---4---4---4---4---4---4--------------|
|-5---5---5---5---5---5---5---5---5--------------|
|-5---5---5---5---5---5---5---5---5--------------|
|-3---3---3---3---3---3---3---3---3--------------|

For You alone are the Son of God

 F2Am7C2
|--1---1---1---1---1---1---1----0--0--0--0---3--3-|
|--1---1---1---1---1---1---1----1--1--1--1---3--3-|
|--2---2---2---2---2---2---2----0--0--0--0---5--5-|
|--3---3---3---3---3---3---3----2--2--2--2---5--5-|
|-------------------------------0--0--0--0---3--3-|
|-------------------------------------------------|

And all will see, that You are God, You are God.

INSTRUMENTAL: with some effects being used...echo/whammy(?)
 EmC2GDEmC2GDEmC2G
|----------------------------------------12h15--12h14-------|
|------7-8------------------8-8/12~-10~---------------15h17-|
|--7/9------7\---------7-9----------------------------------|
|--------------7-7/9~~--------------------------------------|
|-----------------------------------------------------------|
|-----------------------------------------------------------|


 DEmC2GD
|-----------------------------------------------------------|
|--------------------------------------12-15~~~-------------|
|--14h16--14-12-14--------12-14-16-14~~---------------------|
|------------------12-14------------------------------------|
|-----------------------------------------------------------|
|-----------------------------------------------------------|


Do Intro:
Then Chorus with acoustic guitar:
CHORUS:
 GD
|-3---3---3---3---3---3---3--2---2---2---2-------|
|-3---3---3---3---3---3---3--3---3---3---3-------|
|-0---0---0---0---0---0---0--2---2---2---2-------|
|-0---0---0---0---0---0---0--0---0---0---0-------|
|-2---2---2---2---2---2---2----------------------|
|-3---3---3---3---3---3---3----------------------|

Jesus I believe in You and I would go

 Am7C2
|-----0---0---0---0---0---0---0---3--3--3--3-----|
|-----1---1---1---1---1---1---1---3--3--3--3-----|
|-----0---0---0---0---0---0---0---5--5--5--5-----|
|-----2---2---2---2---2---2---2---5--5--5--5-----|
|-----0---0---0---0---0---0---0---3--3--3--3-----|
|------------------------------------------------|

to the ends of the earth, to the ends of the earth

 G
|-3---3---3---3---3---3---3---3---3--------------|
|-3---3---3---3---3---3---3---3---3--------------|
|-4---4---4---4---4---4---4---4---4--------------|
|-5---5---5---5---5---5---5---5---5--------------|
|-5---5---5---5---5---5---5---5---5--------------|
|-3---3---3---3---3---3---3---3---3--------------|

For You alone are the Son of God

 F2Am7C2
|--1---1---1---1---1---1---1----0--0--0--0---3--3-|
|--1---1---1---1---1---1---1----1--1--1--1---3--3-|
|--2---2---2---2---2---2---2----0--0--0--0---5--5-|
|--3---3---3---3---3---3---3----2--2--2--2---5--5-|
|-------------------------------0--0--0--0---3--3-|
|-------------------------------------------------|

And all will see, that You are God, You are God.

CHORUS: This time with guitar 2 (distortion)
 GD
|-3---3---3---3---3---3---3--2---2---2---2-------|
|-3---3---3---3---3---3---3--3---3---3---3-------|
|-0---0---0---0---0---0---0--2---2---2---2-------|
|-0---0---0---0---0---0---0--0---0---0---0-------|
|-2---2---2---2---2---2---2----------------------|
|-3---3---3---3---3---3---3----------------------|

Jesus I believe in You and I would go

 Am7C2
|-----0---0---0---0---0---0---0---3--3--3--3-----|
|-----1---1---1---1---1---1---1---3--3--3--3-----|
|-----0---0---0---0---0---0---0---5--5--5--5-----|
|-----2---2---2---2---2---2---2---5--5--5--5-----|
|-----0---0---0---0---0---0---0---3--3--3--3-----|
|------------------------------------------------|

to the ends of the earth, to the ends of the earth

 G
|-3---3---3---3---3---3---3---3---3--------------|
|-3---3---3---3---3---3---3---3---3--------------|
|-4---4---4---4---4---4---4---4---4--------------|
|-5---5---5---5---5---5---5---5---5--------------|
|-5---5---5---5---5---5---5---5---5--------------|
|-3---3---3---3---3---3---3---3---3--------------|

For You alone are the Son of God

 F2Am7C2
|--1---1---1---1---1---1---1----0--0--0--0---3--3-|
|--1---1---1---1---1---1---1----1--1--1--1---3--3-|
|--2---2---2---2---2---2---2----0--0--0--0---5--5-|
|--3---3---3---3---3---3---3----2--2--2--2---5--5-|
|-------------------------------0--0--0--0---3--3-|
|-------------------------------------------------|

And all will see, that You are God, You are God.
Outro: 8x's with some variations

|-------------------------------------------------|
|--7/8-7--------7-7/8-----------------------------|
|--------9--7-9-----------------------------------|
|-------------------------------------------------|
|-------------------------------------------------|
|-------------------------------------------------|

you play this as variations:
|-------------------------------------------------|
|----7/8--7-----------7-7/8-7---------------------|
|------------9---5/7----------9-7-9---------------|
|-------------------------------------------------|
|-------------------------------------------------|
|-------------------------------------------------|

End:
|-------------------------------------------------|
|---7/8--7---------7-7/8~-------------------------|
|----------9---7-9--------------------------------|
|-------------------------------------------------|
|-------------------------------------------------|
|-------------------------------------------------|


GOD BLESS....
I WISH TO SEE HILLSONG CONCERT LIVE someday.....
...and meet their guitarist in person......

END

+--------------------------------------------------------------------------+

| This file is the author's own work and represents their interpretation |
| of the song. You may only use this file for private study, scholarship, |
| or research. |
+--------------------------------------------------------------------------+


Ultimate-Guitar.Com © 2005


Am7 C2 D Em F2 G
variations - click chord images
Transpose chords:
Tuning:
Cool service:
View: Size:
A  A  A
Rating:
Layout:
  • Currently 4/5 Stars.
  • 1
  • 2
  • 3
  • 4
  • 5
 
Accuracy:
  • Currently 5/5 Stars.
  • 1
  • 2
  • 3
  • 4
  • 5
 
click stars to rate
Chordie recommends:
Learn how to play guitar at JamPlay.com
Songbook:
Login to add this song to your songbook
Support the artist
Preview/buy this song
MSN Music
Why this non-profit ad?

 
login to add comments/video/corrections