Chordie logo

St Andrews Fall   Blind Melon



| Ultimate Guitar Tabs Archive - your #1 source for tabs!               |
| http://www.ultimate-guitar.com/                                       |
|                                                                       |
| Over 150,000 of guitar, guitar pro and bass tabs! Also lessons, news, |
| columns and guitar forums!                                            |


Artist: Blind Melon
Song: St Andrews Fall


----------------------------------------------------------------------------
 		     St.Andrews Fall - Blind Melon
----------------------------------------------------------------------------
Tabbed by: Daniel Gillis
Email: Danielj_15_@hotmail.com

Tuning: Standard
  
Intro: Guitar One (Acoustic)
e|--5----0---5---7--5--0--5-------5--------------------1-----------------5-|
B|--7----7---7---7--7--7--7-------5--------------------1-----------------5-|
G|--6----6---6---6--6--6--6-------6--------------------2-----------------6-|
D|--------------------------------7--------------------3-----------------7-|
A|--------------------------------7--------------------3-----------------7-|
E|--------------------------------5--------------------1-----------------5-|

  Verse: Guitar One (Acoustic) Repeat twice
e|--5----0---5---7--5--0--5------|---5-------------------------------------|
B|--7----7---7---7--7--7--7------|---5-------------------------------------|
G|--6----6---6---6--6--6--6------|---6-------------------------------------|
D|----------------------------x2-|---7-------------------------------------|
A|-------------------------------|---7-------------------------------------|
E|-------------------------------|---5-------------------------------------|

Chorus: Guitar One(Acoustic)  \Play after First chorus only/
                                           V
e|----1--------5--------1-------3-------|---5---|--------------------------|
B|----1--------5--------1-------3-------|---5---|--------------------------|
G|----2--------6--------2-------4---x2--|---6---|--------------------------|
D|----3--------7--------3-------5-------|---7---|--------------------------|
A|----3--------7--------3-------5-------|---7---|--------------------------|
E|----1--------5--------1-------3-------|---5---|--------------------------|

  Falling Part:Guitar One (Acoustic) Repeat several times while speeding up.
e|-------------------------------------------------------------------------|
B|-------------------------------------------------------------------------|
G|-------------------------------------------------------------------------|
D|--7--x--6--5--4--3--3----------------------------------------------------|
A|--7--x--6--5--4--3--3----------------------------------------------------|
E|--5--x--4--3--2--1--1----------------------------------------------------|

  Outro: Guitar One (Acoustic) Repeat second part until end
e|----2---3-----|---2---3---------------------------------------------------|
B|----2---3-----|---2---3---------------------------------------------------|
G|----4---4--x2-|---4---4---------------------------------------------------|
D|----4---5-----|---4---5---7-\-5--7-\-5---7-\-5----------------------------|
A|----2---5-----|---2---5---7-\-5--7-\-5---7-\-5----------------------------|
E|----2---3-----|---2---3---5-\-3--5-\-3---5-\-3----------------------------|

Verse: Guitar 2 (Electric light distortion) Play both parts twice
e|--------------------------|------------------------------------------------|
B|--------------------------|------------------------------------------------|
G|------6-------6--6h7p6----|------------------------------------------------|
D|--5h7----5h7--------------|---------9-----7------7-------------------------|
A|--------------------------|-----5h7----7----5h7----------------------------|
E|--------------------------|------------------------------------------------|

Chorus Fills: Guitar 2 (Electric light distortion)
e|---------------|------5-----5--|-----------------5-----5------5-----5--7br|
B|-------------x2|--5h7---5h7----|-------------5h7---5h7----5h7---5h7-------|
G|---------------|---------------|-Repeat first ----------------------------|
D|---------------|---------------|-2 parts then-----------------------------|
A|-3s5--3--2-----|-------------x2|------------------------------------------|
E|----------1----|---------------|------------------------------------------|

Falling Part: Same as Guitar One


Outro: Pick the first two chords out. Repeat until end

e|------------|---2---3---------------------------------------------------|
B|------------|---2---3---------------------------------------------------|
G|------------|---4---4---------------------------------------------------|
D|------------|---4---5---7-\-5--7-\-5---7-\-5----------------------------|
A|------------|---2---5---7-\-5--7-\-5---7-\-5----------------------------|
E|------------|---2---3---5-\-3--5-\-3---5-\-3----------------------------|


| /  slide up
| \  slide down
| h  hammer-on
| p  pull-off
| ~  vibrato
| +  harmonic
| x  Mute note
| %  Number of times you hit the chord



BLIND MELON RULES ALL. MELONHEADS UNITE
=============================================================================

END

+--------------------------------------------------------------------------+
| This file is the author's own work and represents their interpretation   |
| of the song. You may only use this file for private study, scholarship,  |
| or research.                                                             |
+--------------------------------------------------------------------------+



Important: The song above is NOT stored on the Chordie server. The original song is hosted at www.ultimate-guitar.com. Chordie works as a search engine and provides on-the-fly formatting. Chordie does not index songs against artists/composers will. To remove this song please click here.

This song is displayed as text-only. Transposing and tuning is only available for chordpro-songs.

Login - add to songbook

Rating click stars to rate

Layout
Accuracy

SHARE PAGE  

You need to log in to post comments