High

Speaks

 ##############################
 This is the original version #
 ##############################

Title : High
Artist : The speaks
Album : Life's a joke

Ear tabber : Walter Michael De la Cruz
E-mail add 1: Walterfdelacruz@yahoo.com
E-mail add 2: Michaelfdelacruz@yahoo.com
School : Saint Louis University, Baguio City
Contact no : 09224012464

This song goes to Karla Pandacan.. I love You!!

Please Rate this song.. Thank you
Sana mgustuhan nyo pong lahat to.. The best tong kantang 2!!

Legend:
h - hammer
p - pull

chords
A/C#: 040220

Intro:

 DA/C#
E|-2-------2-------------|--0------2--0----------|
B|----3-------3----0-----|----2-------------2----|
G|------2-------2-----2--|------2--------2----2--|
D|-0-------0-------3-----|-----------------------|
A|-----------------------|--4------4--------4----|
E|-----------------------|-----------------------|


 BmGA
E|-----------2--------------|----------------|-------------|
B|--3-----------3----3------|--3------3------|--2----------|
G|-----4----------2-----4---|----0------0----|-----2-------|
D|-------4------------------|------0------0--|-------------|
A|--2--------2-------2------|----------------|--0----------|
E|--------------------------|--3------3------|-------------|


 DA/C#
E|-2-------2-------------|--0------2--0----------|
B|----3-------3----0-----|----2-------------2----|
G|------2-------2-----2--|------2--------2----2--|
D|-0-------0-------3-----|-----------------------|
A|-----------------------|--4------4--------4----|
E|-----------------------|-----------------------|


 BmGA
E|-----------2--------------|----------------|-------------|
B|--3-----------3----3------|--3------3------|--2----------|
G|-----4----------2-----4---|----0------0----|-----2-------|
D|-------4------------------|------0------0--|-------------|
A|--2--------2-------2------|----------------|--0----------|
E|--------------------------|--3------3------|-------------|


Verse 1:

 DA/C#
E|-2-------2-------------|--0------2--0----------|
B|----3-------3----0-----|----2-------------2----|
G|------2-------2-----2--|------2--------2----2--|
D|-0-------0-------3-----|-----------------------|
A|-----------------------|--4------4--------4----|
E|-----------------------|-----------------------|

Will it ever be...

 BmGA
E|-----------2--------------|----------------|-------------|
B|--3-----------3----3------|--3------3------|--2----------|
G|-----4----------2-----4---|----0------0----|-----2-------|
D|-------4------------------|------0------0--|-------------|
A|--2--------2-------2------|----------------|--0----------|
E|--------------------------|--3------3------|-------------|
   Im trying so hard to find sweet sere---ni----ty


 DA
E|-2-------2-----------------|--0------2--0----------|
B|----3-------3----0---------|----2-------------2----|
G|------2-------2-----2------|------2--------2----2--|
D|-0-------0-------3---------|-----------------------|
A|---------------------------|--4------4--------4----|
E|---------------------------|-----------------------|

Im still afraid

 BmGA
E|-----------2---------------|----------------|---------|
B|--3-----------3----3-------|--3------3------|--2------|
G|-----4----------2-----4----|----0------0----|-----2---|
D|-------4-------------------|------0------0--|---------|
A|--2--------2-------2-------|----------------|--0------|
E|---------------------------|--3------3------|---------|

Just close your eyes and dream Feel it fade away

Chorus:( Strum the strings here)

 DA/C#
 Time won't flow
 Bm
Everyone knows
 G-A
When the paifades away
 DA/C#
 Dreams wont die
 Bm
Tears in our eyes
 G-A
You got to hold your hand up

Guitar 1:(D-A/C#-Bm-G-A)                           

Guitar 2:
 DA/C#
E|-------------12--10-10--9-10p9-----|-------------12--10-10-9-10p9------|
B|--10---10-10-------------------10--|-10---10-10-------------------10---|
G|-----------------------------------|-----------------------------------|
D|-----------------------------------|-----------------------------------|
A|-----------------------------------|-----------------------------------|
E|-----------------------------------|-----------------------------------|
     H----------i-----------------g--------------h.................


 BmGA

E|-7---7-7-10-9-----10-10-9-10p9-------7--7----9---9-----------------|
B|--------------10----------------10---------------------------------|
G|-------------------------------------------------------------------|
D|-------------------------------------------------------------------|
A|-------------------------------------------------------------------|
E|-------------------------------------------------------------------|

Yeah ........................ Yeah Hold your hand up high
Verse 2( Plucking also just like in the intro )

 DA/C#
   It's Takin' some time
 Bm
Than Driven on the will

 GA
To change the state of mind
 DA/C#
   Let's try to understand
 Bm
 It's not so hard to
 GA
 See that I'm just a man

Chorus:( Strum the strings here)

 DA/C#
 Time won't flow
 Bm
Everyone knows
 G-A
When the paifades away
 DA/C#
 Dreams wont die
 Bm
Tears in our eyes
 G-A
You got to hold your hand up

Guitar 1:(D-A-Bm-G-A) Paulit ulit lang, strumming                         


Guitar 2: Lead part
 DA/C#
E|-------------12--10-10--9-10p9-----|-------------12--10-10-9-10p9------|
B|--10---10-10-------------------10--|-10---10-10-------------------10---|
G|-----------------------------------|-----------------------------------|
D|-----------------------------------|-----------------------------------|
A|-----------------------------------|-----------------------------------|
E|-----------------------------------|-----------------------------------|
     H----------i-----------------g--------------h.................


 BmGA
E|-7---7-7-10-9-----10-10-9-10p9-------7--7----9---9-----------------|
B|--------------10----------------10---------------------------------|
G|-------------------------------------------------------------------|
D|-------------------------------------------------------------------|
A|-------------------------------------------------------------------|
E|-------------------------------------------------------------------|

Yeah ........................ Yeah Hold your hand up high

adlib:

 DA/C#
e|-----------------------|----------------------------|
B|-----5-5h7--5----------|----------------------------|
G|-7=------------7-7/9---|--7-6-7----6-4--4h6p4-------|
D|-----------------------|----------------------------|
A|-----------------------|----------------------------|
E|-----------------------|----------------------------|


 BmGA
e|-----------|------------|---------------------------|
B|-----------|------------|---------------------------|
G|-----------|---------6--|---6h7-6-------------------|
D|--7--5--4--|---4-5-7----|---------7-----------------|
A|-----------|------------|---------------------------|
E|-----------|------------|---------------------------|


 DA/C#
e|-----------------|---------------------------------|
B|-----5-5h7-5-----|-8/10--8-7-8---7-----------------|
G|-7=-----------7--|-----------------7---------------|
D|-----------------|---------------------------------|
A|-----------------|---------------------------------|
E|-----------------|---------------------------------|


 BmGA
e|--------------|------------------10-9---10---------|
B|------7-8-----|-----7-8-----10--------10-----------|
G|-7h9------7-7-|-7h9------7-------------------------|
D|--------------|------------------------------------|
A|--------------|------------------------------------|
E|--------------|------------------------------------|


Verse 3:

 DA/C#
E|-2-------2-------------|--0------2--0----------|
B|----3-------3----0-----|----2-------------2----|
G|------2-------2-----2--|------2--------2----2--|
D|-0-------0-------3-----|-----------------------|
A|-----------------------|--4------4--------4----|
E|-----------------------|-----------------------|

Will it ever be...

 BmGA
E|-----------2--------------|----------------|-------------|
B|--3-----------3----3------|--3------3------|--2----------|
G|-----4----------2-----4---|----0------0----|-----2-------|
D|-------4------------------|------0------0--|-------------|
A|--2--------2-------2------|----------------|--0----------|
E|--------------------------|--3------3------|-------------|
   Im trying so hard to find sweet sere---ni----ty


 DA
E|-2-------2-----------------|--0------2--0----------|
B|----3-------3----0---------|----2-------------2----|
G|------2-------2-----2------|------2--------2----2--|
D|-0-------0-------3---------|-----------------------|
A|---------------------------|--4------4--------4----|
E|---------------------------|-----------------------|

Im still afraid

 BmGA
E|-----------2---------------|----------------|---------|
B|--3-----------3----3-------|--3------3------|--2------|
G|-----4----------2-----4----|----0------0----|-----2---|
D|-------4-------------------|------0------0--|---------|
A|--2--------2-------2-------|----------------|--0------|
E|---------------------------|--3------3------|---------|

Just close your eyes and dream Feel it fade away

Chorus:( Strum the strings here)

 DA/C#
 Time won't flow

 Bm
Everyone knows
 G-A
When the paifades away
 DA/C#
 Dreams wont die
 Bm
Tears in our eyes
 G-A
You got to hold your hand up

Guitar 1:(D-A/C#-Bm-G-A)                           

Guitar 2:
 DA/C#
E|-------------12--10-10--9-10p9-----|-------------12--10-10-9-10p9------|
B|--10---10-10-------------------10--|-10---10-10-------------------10---|
G|-----------------------------------|-----------------------------------|
D|-----------------------------------|-----------------------------------|
A|-----------------------------------|-----------------------------------|
E|-----------------------------------|-----------------------------------|
     H----------i-----------------g--------------h.................


 BmGA
E|-7---7-7-10-9-----10-10-9-10p9-------7--7----9---9-----------------|
B|--------------10----------------10---------------------------------|
G|-------------------------------------------------------------------|
D|-------------------------------------------------------------------|
A|-------------------------------------------------------------------|
E|-------------------------------------------------------------------|

Yeah ........................ Yeah Hold your hand up high

 ###############################
 This is the Acoustic version  #
 ###############################
Parang parehas din sa original version acoustic guitar lang yung ginamit
tapos magkaiba sa lead

Legend:
h - hammer
p - pull

chords
A/C#: 040220

Intro:

 DA/C#
E|-2-------2-------------|--0------2--0----------|
B|----3-------3----0-----|----2-------------2----|
G|------2-------2-----2--|------2--------2----2--|
D|-0-------0-------3-----|-----------------------|
A|-----------------------|--4------4--------4----|
E|-----------------------|-----------------------|


 BmGA
E|-----------2--------------|----------------|-------------|
B|--3-----------3----3------|--3------3------|--2----------|
G|-----4----------2-----4---|----0------0----|-----2-------|
D|-------4------------------|------0------0--|-------------|
A|--2--------2-------2------|----------------|--0----------|
E|--------------------------|--3------3------|-------------|


 DA/C#
E|-2-------2-------------|--0------2--0----------|
B|----3-------3----0-----|----2-------------2----|
G|------2-------2-----2--|------2--------2----2--|
D|-0-------0-------3-----|-----------------------|
A|-----------------------|--4------4--------4----|
E|-----------------------|-----------------------|


 BmGA
E|-----------2--------------|----------------|-------------|
B|--3-----------3----3------|--3------3------|--2----------|
G|-----4----------2-----4---|----0------0----|-----2-------|
D|-------4------------------|------0------0--|-------------|
A|--2--------2-------2------|----------------|--0----------|
E|--------------------------|--3------3------|-------------|


Verse 1:

 DA/C#
E|-2-------2-------------|--0------2--0----------|
B|----3-------3----0-----|----2-------------2----|
G|------2-------2-----2--|------2--------2----2--|
D|-0-------0-------3-----|-----------------------|
A|-----------------------|--4------4--------4----|
E|-----------------------|-----------------------|

Will it ever be...

 BmGA
E|-----------2--------------|----------------|-------------|
B|--3-----------3----3------|--3------3------|--2----------|
G|-----4----------2-----4---|----0------0----|-----2-------|
D|-------4------------------|------0------0--|-------------|
A|--2--------2-------2------|----------------|--0----------|
E|--------------------------|--3------3------|-------------|
   Im trying so hard to find sweet sere---ni----ty


 DA
E|-2-------2-----------------|--0------2--0----------|
B|----3-------3----0---------|----2-------------2----|
G|------2-------2-----2------|------2--------2----2--|
D|-0-------0-------3---------|-----------------------|
A|---------------------------|--4------4--------4----|
E|---------------------------|-----------------------|

Im still afraid

 BmGA
E|-----------2---------------|----------------|---------|
B|--3-----------3----3-------|--3------3------|--2------|
G|-----4----------2-----4----|----0------0----|-----2---|
D|-------4-------------------|------0------0--|---------|
A|--2--------2-------2-------|----------------|--0------|
E|---------------------------|--3------3------|---------|

Just close your eyes and dream Feel it fade away

Chorus:( Strum the strings here)

 DA/C#
 Time won't flow
 Bm
Everyone knows
 G-A
When the paifades away
 DA/C#
 Dreams wont die
 Bm
Tears in our eyes
 G-A
You got to hold your hand up

Guitar 1:(D-A/C#-Bm-G-A)                           

Guitar 2:
 DA/C#

E|-------------12--10-10--9-10p9-----|-------------12--10-10-9-10p9------|
B|--10---10-10-------------------10--|-10---10-10-------------------10---|
G|-----------------------------------|-----------------------------------|
D|-----------------------------------|-----------------------------------|
A|-----------------------------------|-----------------------------------|
E|-----------------------------------|-----------------------------------|
     H----------i-----------------g--------------h.................


 BmGA
E|-7---7-7-10-9-----10-10-9-10p9-------7--7----9---9-----------------|
B|--------------10----------------10---------------------------------|
G|-------------------------------------------------------------------|
D|-------------------------------------------------------------------|
A|-------------------------------------------------------------------|
E|-------------------------------------------------------------------|

Yeah ........................ Yeah Hold your hand up high
Verse 2( Plucking also just like in the intro )

 DA/C#
   It's Takin' some time
 Bm
Than Driven on the will

 GA
To change the state of mind
 DA/C#
   Let's try to understand
 Bm
 It's not so hard to
 GA
 See that I'm just a man

Chorus:( Strum the strings here)

 DA/C#
 Time won't flow
 Bm
Everyone knows
 G-A
When the paifades away
 DA/C#
 Dreams wont die
 Bm
Tears in our eyes
 G-A
You got to hold your hand up

Guitar 1:(D-A-Bm-G-A) Paulit ulit lang, strumming                         


Guitar 2: Lead part
 DA/C#
E|-------------12--10-10--9-10p9-----|-------------12--10-10-9-10p9------|
B|--10---10-10-------------------10--|-10---10-10-------------------10---|
G|-----------------------------------|-----------------------------------|
D|-----------------------------------|-----------------------------------|
A|-----------------------------------|-----------------------------------|
E|-----------------------------------|-----------------------------------|
     H----------i-----------------g--------------h.................


 BmGA
E|-7---7-7-10-9-----10-10-9-10p9-------7--7----9---9-----------------|
B|--------------10----------------10---------------------------------|
G|-------------------------------------------------------------------|
D|-------------------------------------------------------------------|
A|-------------------------------------------------------------------|
E|-------------------------------------------------------------------|

Yeah ........................ Yeah Hold your hand up high

 D
E|--5-3-2-2---2-5-3-2-2---2-5-3-2--------2------------------------|
B|---------------------------------3--5----5----------------------|
G|----------------------------------------------------------------|
D|----------------------------------------------------------------|
A|----------------------------------------------------------------|
E|----------------------------------------------------------------|


 A/C#
E|-------5-3-2-2---2-5-3-2-2---2-5-3-2------2------------------------|
B|-3--5---------------------------------3-5---3----------------------|
G|-------------------------------------------------------------------|
D|-------------------------------------------------------------------|
A|-------------------------------------------------------------------|
E|-------------------------------------------------------------------|

 Bm
E|--5-3-2-2---2-5-3-2-2---2-5-3-2--------2------------------------|
B|---------------------------------3--5----5----------------------|
G|----------------------------------------------------------------|
D|----------------------------------------------------------------|
A|----------------------------------------------------------------|
E|----------------------------------------------------------------|

 GA
E|--5-3-2-2---2-5-3-2-2---2-5-3-2------2------------------------|
B|---------------------------------3-5---3--------3-------------|
G|-------------------------------------------2h4----------------|
D|--------------------------------------------------------------|
A|--------------------------------------------------------------|
E|--------------------------------------------------------------|


Verse 3:

 DA/C#
E|-2-------2-------------|--0------2--0----------|
B|----3-------3----0-----|----2-------------2----|
G|------2-------2-----2--|------2--------2----2--|
D|-0-------0-------3-----|-----------------------|
A|-----------------------|--4------4--------4----|
E|-----------------------|-----------------------|

Will it ever be...

 BmGA
E|-----------2--------------|----------------|-------------|
B|--3-----------3----3------|--3------3------|--2----------|
G|-----4----------2-----4---|----0------0----|-----2-------|
D|-------4------------------|------0------0--|-------------|
A|--2--------2-------2------|----------------|--0----------|
E|--------------------------|--3------3------|-------------|
   Im trying so hard to find sweet sere---ni----ty


 DA
E|-2-------2-----------------|--0------2--0----------|
B|----3-------3----0---------|----2-------------2----|
G|------2-------2-----2------|------2--------2----2--|
D|-0-------0-------3---------|-----------------------|
A|---------------------------|--4------4--------4----|
E|---------------------------|-----------------------|

Im still afraid

 BmGA
E|-----------2---------------|----------------|---------|
B|--3-----------3----3-------|--3------3------|--2------|
G|-----4----------2-----4----|----0------0----|-----2---|
D|-------4-------------------|------0------0--|---------|
A|--2--------2-------2-------|----------------|--0------|
E|---------------------------|--3------3------|---------|

Just close your eyes and dream Feel it fade away

Chorus:( Strum the strings here)

 DA/C#
 Time won't flow
 Bm
Everyone knows
 G-A
When the paifades away
 DA/C#
 Dreams wont die
 Bm
Tears in our eyes
 G-A
You got to hold your hand up

Guitar 1:(D-A/C#-Bm-G-A)                           

Guitar 2:
 DA/C#
E|-------------12--10-10--9-10p9-----|-------------12--10-10-9-10p9------|
B|--10---10-10-------------------10--|-10---10-10-------------------10---|
G|-----------------------------------|-----------------------------------|
D|-----------------------------------|-----------------------------------|
A|-----------------------------------|-----------------------------------|
E|-----------------------------------|-----------------------------------|
     H----------i-----------------g--------------h.................


 BmGA
E|-7---7-7-10-9-----10-10-9-10p9-------7--7----9---9-----------------|
B|--------------10----------------10---------------------------------|
G|-------------------------------------------------------------------|
D|-------------------------------------------------------------------|
A|-------------------------------------------------------------------|
E|-------------------------------------------------------------------|

Yeah ........................ Yeah Hold your hand up high

For comments send me a message in Friendster.

E-mail add 1: Walterfdelacruz@yahoo.com
E-mail add 2: Michaelfdelacruz@yahoo.com

And u Can also add me as your friend Or send me a testimonial.hehehe
God bless!

END

+--------------------------------------------------------------------------+

| This file is the author's own work and represents their interpretation |
| of the song. You may only use this file for private study, scholarship, |
| or research. |
+--------------------------------------------------------------------------+


Ultimate-Guitar.Com © 2005


A A/C# Bm D G
variations - click chord images
Transpose chords:
Tuning:
Cool service:
View: Size:
A  A  A
Rating:
Layout:
  • Currently 0/5 Stars.
  • 1
  • 2
  • 3
  • 4
  • 5
 
Accuracy:
  • Currently 0/5 Stars.
  • 1
  • 2
  • 3
  • 4
  • 5
 
click stars to rate
Chordie recommends:
Learn to play this song & others via video guitar lessons at JamPlay.com
Songbook:
Login to add this song to your songbook
Support the artist
Preview/buy this song
MSN Music
Why this non-profit ad?

 
login to add comments/video/corrections

hunchback_leo (report comment to admin):
sakto lang