"yes"; ?> Cold Hard Bitch by Jet - guitar chords, guitar tabs and lyrics - chordie

Cold Hard Bitch

Jet

E----------------------------------------------------|

B----------------------------------------------------|
G--2-------------------------------------------------|
D--2-------------------------------------------------|
A-(0)------------------------------------------------|
E----------------------------------------------------|
E-------------------------------------------------|
B-------------------------------------------------|
G-------------------------------------------------|
D-------------------------------------------------|
A-------------------------------------------------|
E-------------------------------------------------|
E--------------------------------------------------------|
B-(3)-------------------(3)-3----------------------------|
G--2---------------------2--2----2-----------------------|
D--2---------------------2--2----2-----------------------|
A--------------------------------------------------------|
E--------------------------------------------------------|
E-------------------------------------------------|
B-------------------------------------------------|
G-------------------------------------------------|
D-------------------------------------------------|
A-0-0-0-0-0-0-0-0-0-0-0-0-0-0-0-0-0-0-0-0-0-0-0-0-|
E-------------------------------------------------|
 123412341234123412341234

Gtr.1
P.m.......
E--------------------------------------------------|
B--3--------------------3-3------------------------|
G--2--2-----------------2-2---2--------------------|
D--2--2-----------------2-2---2------------2-----2-|
A------------------------------------------0-3~--0-|
E--------------------------------------------------|   \

| |
Gtr.2 > x2

| |
p.m.............................................. /
E--------------------------------------------------|
B--------------------------------------------------|
G--------------------------------------------------|
D--------------------------------------------------|
A-0-0-0-0-0-0-0-0-0-0-0-0-0-0-0-0-0-0-0-0-0-0-0-0--|
E--------------------------------------------------|

 123412341234123412341234
Gtr.1
P.m.......
E--------------------------------------------------|
B--3--------------------3-3------------------------|
G--2--2-----------------2-2----2-------------------|
D--2--2-----------------2-2----2-----------2-----2-|
A------------------------------------------0-3~--0-|
E--------------------------------------------------|

|
Gtr.2
|
E------------------------------------------------------|
B------------------------------------------------------|
G------------------------------------------------------|
D------------------------------------------------------|
A------------------------------------------7--9-9-9-7--|
E------------------------------------------5--5-5-5-5--|


Gtr.1
P.m.......
E----------------------------------------------------|
B--3--------------------3-3--------------------------|
G--2--2-----------------2-2----2---------------------|
D--2--2-----------------2-2----2-----------2-----2---|
A------------------------------------------0-3~--0---|
E----------------------------------------------------|    \

| |
Gtr.2 > x4
| |
E-----------------------------------------------------| /
B-----------------------------------------------------|
G-----------------------------------------------------|
D-----------------------------------------------------|
A--10-7---7---9---7----10-9----------------7--9-9-9-7-|
E--5--5---5---5---5----5--5----------------5--5-5-5-5-|


//YEAH! PART

YEAH!!!!!!!!!!!!!!!!!!!!!!!!!
E------------------------------------------------------|
B--2-------(2)-----------------------------------------|
G--3-------(3)-----------------------------------------|
D--0-------(0)-----------------------------------------|
A--0-------(0)-----------------------------------------|
E------------------------------------------------------|


//MAIN RIFF:

E-------------------------------------------------|
B-------------------------------------------------|
G--2--2-2----------------(0)--2-------------------|
D--2--2-2---2-(0)-2-(0)---x---2-------------------|    x3
A--0--0-0---2--x--2--x----3---0-------------------|
E-----------0--3--0--3----------------------------|
E-------------------------------------------------|
B-------------------------------------------------|
G--2--2-2------------------2----------------------|
D--2--2-2---2-(0)-2-(0)----2----------------------|    x1
A--0--0-0---2--x--2--x-----0----------------------|
E-----------0--3--0--3----------------------------|


//VERSE:

Gotta leave town...

apointment.....Yeah!
E-3-----------------------------------------------------------------|
B-3-2---------------------------------------------------------------|
G-0-3-------------2--2-2------------------2-------------------------|
D-0-0-------------2--2-2---2-(0)-2-(0)----2-------------------------|  x1
A-0-0-------------0--0-0---2--x--2--x-----0-------------------------|
E-3------------------------0--3--0--3-------------------------------|


Spent all my rent...

enjoyed it.....Yeah! (let ring)...........
E-3-------------------------------------------------------------------|
B-3-2------------------------------------------3----------------------|
G-0-3-------------2--2-2-----------------------2-----2----0-----------|
D-0-0-------------2--2-2---2-(0)-2-(0)---------0-----2----x-----------|
A-0-0-------------0--0-0---2--x--2--x----------0-----0----2-----------|
E-3------------------------0--3--0--3---------------------3-----------|


//PRE-CHORUS:

E-------------------------------------------------------|
B--3-3-x----3---2----2---2------------------------------|
G--2-2-x-2--2-2-3--2-3-2-3------------------------------|
D--0-0-x-2--0-2-0--2-0-2-0------------------------------|
A--0-0-x-0--0-0----0---0--------------------------------|
E-------------------------------------------------------|


//CHORUS:

E----------3-----3---------------------------------|
B----------3-----3--2--(2)-------------------------|
G--2----2--0-----0--3--(3)-------------------------|
D--2----2--0-----0--0--(0)-----3----3------5--5----|
A--0----0--x-----x-------------3----3------5--5----|
E----------3-----3-----------0-1--0-1----0-3--3----|    \

Cold hard bitch........ |
> x1
(let ring)....... |
E----------3-----3----------|                           /
B----------3-----3--2-------|
G--2----2--0-----0--3-------|
D--2----2--0-----0--0-------|
A--0----0--x-----x----------|
E----------3-----3----------|


//POST-CHOUS

E--------------------------------------------------|
B--------------------------------------------------|
G--2-----2-2----2-2----2-2----------------------0--|
D--2-----2-2----2-2----2-2---------2-(0)-2-(0)--x--|
A----------------------------------2--x--2--x---3--|
E----------------------------------0--3--0--3------|
E---------------------------------------------------|
B---------------------------------------------------|
G--2--2-2---------------0---2-----------------------|
D--2--2-2---2-(0)-2-(0)-x---2-----------------------|
A--0--0-0---2--x--2--x--3---0-----------------------|
E-----------0--3--0--3------------------------------|
E-------------------------------------------------|
B-------------------------------------------------|
G--2--2-2------------------2----------------------|
D--2--2-2---2-(0)-2-(0)----2----------------------|
A--0--0-0---2--x--2--x-----0----------------------|
E-----------0--3--0--3----------------------------|


//VERSE

//PRE-CHORUS

//CHORUS

E----------3-----3---------------------------------|
B----------3-----3--2--(2)-------------------------|   x2
G--2----2--0-----0--3--(3)-------------------------|
D--2----2--0-----0--0--(0)-----3----3------5--5----|
A--0----0--x-----x-------------3----3------5--5----|
E----------3-----3-----------0-1--0-1----0-3--3----|

Cold hard bitch........

(let ring).......
E----------3-----3----------|
B----------3-----3--2-------|  x1
G--2----2--0-----0--3-------|
D--2----2--0-----0--0-------|
A--0----0--x-----x----------|
E----------3-----3----------|


//ENDING RIFF:

NOTE: First 4 times keep your strumming tight last 4 time loose.

E-------3-----3----------------------------------|
B-------3-----3--3----(3)------------------------| x8
G--2----0-----0--2----(2)-----2--2-2-2-----------|
D--2----0-----0--0----(0)-----2--2-2-2-----------|
A--0----x-----x---------------0--0-0-0-----------|
E-------3-----3-----------0-3--------------------|


Gtr.2

E-------------------------------------------------|
B-------------------------------------------------|  x8
G-------------------------------------------------|
D-------------------------------------------------|
A--7--9-9-9-7--10-7---7--9--7--10-9---------------|
E--5--5-5-5-5--5--5---5--5--5--5--5---------------|


Gtr.1

NOTE: Only start after gtr.2 has played above two times

E--------------------------------------------------------|
B-(3)-------------------(3)-3----------------------------|
G--2--2------------------2--2----2-----------------------|
D--2--2------------------2--2----2-----------------------|
A--------------------------------------------------------|
E--------------------------------------------------------|


P.m.......
E--------------------------------------------------|
B--3--------------------3-3------------------------|
G--2--2-----------------2-2---2--------------------|
D--2--2-----------------2-2---2------------2-----2-|
A------------------------------------------0-3~--0-|
E--------------------------------------------------|


P.m.......
E--------------------------------------------------|
B--3--------------------3-3------------------------|
G--2--2-----------------2-2---2--------------------|
D--2--2-----------------2-2---2------------2-----2-|
A------------------------------------------0-3~--0-|
E--------------------------------------------------|


P.m.......

E-----------------------------------------------------|
B--3--------------------3-3---------------------------|
G--2--2-----------------2-2---2-2---------------------|
D--2--2-----------------0-0---2-2---------------------|
A-----------------------0-0---0-0---------------------|
E-----------------------------------------------------|


//YEAH! PART

//SEMI-OUTRO-CHORUS:

E----------3-----3---------------------------------|
B----------3-----3--2--(2)-------------------------|   x3
G--2----2--0-----0--3--(3)-------------------------|
D--2----2--0-----0--0--(0)-----3----3------5--5----|
A--0----0--x-----x-------------3----3------5--5----|
E----------3-----3-----------0-1--0-1----0-3--3----|

Cold hard bitch........

enjoy!!!!

END

+--------------------------------------------------------------------------+

| This file is the author's own work and represents their interpretation |
| of the song. You may only use this file for private study, scholarship, |
| or research. |
+--------------------------------------------------------------------------+


Ultimate-Guitar.Com © 2005


variations - click chord images
Transpose chords:
Tuning:
Cool service:
View: Size:
A  A  A
Rating:
Layout:
  • Currently 0/5 Stars.
  • 1
  • 2
  • 3
  • 4
  • 5
 
Accuracy:
  • Currently 5/5 Stars.
  • 1
  • 2
  • 3
  • 4
  • 5
 
click stars to rate
Chordie recommends:
Get acoustic guitar lessons and electric guitar lessons at JamPlay.com
Songbook:
Login to add this song to your songbook
Support the artist
Preview/buy this song
MSN Music
Why this non-profit ad?

 
login to add comments/video/corrections