eToCache5 = ""; ?> Look What Youve Done by Jet - guitar chords, guitar tabs and lyrics - chordie

Look What Youve Done

Jet

----------------------------------------------------------------------------

----------------------------------------------------------------------------

 CCCG
e|--------------------------------------------------------------------------|
B|-1------1-----1---1-----1-----1---1-----1-----1---0-----0-----0-----------|
G|---0--------0---0---0-------0---0---0-------0---0---0-------0---0---------|
D|-----2----2-----------2---2-----------2---2-----------0---0---------------|
A|-3----------------3---------------3---------------2-----------------------|
E|--------------------------------------------------------------------------|

Take my ph..wall if it just wont...
Give me... view coz i just wont
 AmFCG
e|--------------------------------------------------------------------------|
B|-1-----1-----1---1-----1-----1---1-----1-----1---0-----0-----0------------|
G|---2-------2---2---2-------2---2---0-------0---0---0-------0---0----------|
D|-----2---2-----------3---3-----------2---2-----------0---0----------------|
A|-0---------------0---------------3---------------2------------------------|
E|--------------------------------------------------------------------------|

sing for you. All thats...has gone away and...
think for you. I can har...say what should i
 AmD
e|--------------------------------------------------------------------------|
B|-1------1-----1-----3-----3-----3-----------------------------------------|
G|---2--------2---2-----2-------2---2---------------------------------------|
D|-----2----2-------------0---0---------------------------------------------|
A|-0------------------0-----------------------------------------------------|
E|--------------------------------------------------------------------------|

there for you to prove.
do well you choose.

Chorus:
 FGCAm
e|-----------------------------------------------------------------|
B|-1-----1-----1---0-----0-----0---3-----3-----3---1-----1-----1---|
G|---2-------2---2---0-------0---0---0-------0---0---2-------2---2-|
D|-----3---3-----------0---0-----------2---2-----------2---2-------|
A|-0---------------2---------------1---------------0---------------|
E|-----------------------------------------------------------------|

Oh Look what... done youve... Fool of every
Oh it seems... fun until you Lose what

 D
e|-----------|
B|-3-----3---|  only play this D at end of one chorus coz then it goes into
G|---2-------|  this after second and third verse:
D|-----0-----|
A|-0---------|
E|-----------|

ohhhhh
 FG

e|--------------------------------------------------------------------------|
B|-1-----1-----1---0-----0-----0--------------------------------------------|
G|---2-------2---2---0-------0---0------------------------------------------|
D|-----3---3-----------0---0------------------------------------------------|
A|-0---------------2--------------------------------------------------------|
E|--------------------------------------------------------------------------|

Oh Look what... done youve made a

Bridge: instead of doin barre chords use pointer finger for B string. EASY!
 G#A#F
e|--------------------------------------------------------------------------|
B|-4-----4-6-----6-1-----1-----1--------------------------------------------|
G|---5-------7-------2-------2---2------------------------------------------|
D|-----6-------8-------3---3------------------------------------------------|
A|-6-------8-------3--------------------------------------------------------|
E|--------------------------------------------------------------------------|

Fool... every one

G# A# straight into verse or outro.
e|--------------------------------------------------------------------------|
B|-4-----4-----4---6-----6-----6--------------------------------------------|
G|---5-------5---5---7-------7---7------------------------------------------|
D|-----6---6-----------8---8------------------------------------------------|
A|-6---------------8--------------------------------------------------------|
E|--------------------------------------------------------------------------|

Fool of every one

| / slide up
| \ slide down
| h hammer-on
| p pull-off
| ~ vibrato
| + harmonic
| x Mute note

This is the order in which the song goes.
Intro
Verse 1
Chorus
Verse 2
Chorus
Bridge
Verse 1
Chorus
Bridge
Outro.

AAArrggghhhh I did it! stoked! hope i was helpful... dont 4 get to rate so i know how
i went haha l8r!

END

+--------------------------------------------------------------------------+

| This file is the author's own work and represents their interpretation |
| of the song. You may only use this file for private study, scholarship, |
| or research. |
+--------------------------------------------------------------------------+


Ultimate-Guitar.Com © 2005


A# Am C D F G G#
variations - click chord images
Transpose chords:
Tuning:
Cool service:
View: Size:
A  A  A
Rating:
Layout:
  • Currently 4/5 Stars.
  • 1
  • 2
  • 3
  • 4
  • 5
 
Accuracy:
  • Currently 5/5 Stars.
  • 1
  • 2
  • 3
  • 4
  • 5
 
click stars to rate
Chordie recommends:
Learn to play guitar with video-based, online guitar lessons at JamPlay.com
Songbook:
Login to add this song to your songbook
Support the artist
Preview/buy this song
MSN Music
Why this non-profit ad?

 
login to add comments/video/corrections