Some Girls

Rolling Stones

-------------------------------------------------------------------------------


INTRO: 3x's (USE SOME VARIATION AT TIMES)

 Am11AmAm11AmF
E -------------------|------------------|-----------------|
B -------------------|------------------|-----------------|
G -------7-5---------|------7-5---------|------5----------|
D --5-7-------7-5-7--|--5-7------7-5-7--|--5-7----7-------|
A -------------------|------------------|-----------------|
E -------------------|------------------|-----------------|


VERSE:
 Am11Am
I've been holding out so long
 Am11Am
I've been sleeping all alone
 F
Lord I miss you
 Am11Am
I've been hanging on the phone
 Am11Am
I've been sleeping all alone
 F
I want to kiss you, sometimes

CHORUS:
 Am11Am
Oooh oooh oooh oooh oooh oooh oooh
 Am11Am
Oooh oooh oooh oooh oooh oooh oooh
 F
Oooh oooh oooh oooh
 Am11Am
Oooh oooh oooh oooh oooh oooh oooh
 Am11Am
Oooh oooh oooh oooh oooh oooh oooh
 F
Oooh oooh oooh oooh

VERSE:

Well, I've been haunted in my sleep
You've been starring in my dreams
Lord I miss you
I've been waiting in the hall
Been waiting on your call
When the phone rings
VERSE:
It's just some friends of mine that say,
"Hey, what's the matter man?
We're gonna come around at twelve
With some Puerto Rican girls that are just
dyin' to meet you.
We're gonna bring a case of wine
Hey, let's go mess and fool around
You know, like we used to"

CHORUS:
Aaah aaah aaah aaah aaah aaah aaah
Aaah aaah aaah aaah aaah aaah aaah
Aaah aaah aaah aaah
Aaah aaah aaah aaah aaah aaah aaah
Aaah aaah aaah aaah aaah aaah aaah
 D5
Aaah aaah aaah aaah

BREAK:

sl.
 FEmDm
  Oh everybody waits so long
 FEmDm
 Oh baby why you wait so long
         E                    E -------------|
Won't you come on! Come on!   B -------------|
                              G ----7-5-7----|
                              D -7--------7--|
                              E -------------|

VERSE: (SPOKEN)
I've been walking in Central Park
Singing after dark
People think I'm crazy
I've been stumbling on my feet
Shuffling through the street
Asking people, "What's the matter with you boy?"
Sometimes I want to say to myself
Sometimes I say

CHORUS:
Oooh oooh oooh oooh oooh oooh oooh
Oooh oooh oooh oooh oooh oooh oooh
Oooh oooh oooh
Oooh oooh oooh oooh oooh oooh oooh
Oooh oooh oooh oooh oooh oooh oooh (START TO SOLO HERE)

VERSE:
I guess I'm lying to myself
It's just you and no one else
Lord I won't miss you child
You've been blotting out my mind
Fooling on my time
No, I won't miss you, baby, yeah
Lord, I miss you child

CHORUS:
Aaah aaah aaah aaah aaah aaah aaah
Aaah aaah aaah aaah aaah aaah aaah
Aaah aaah aaah aaah
Lord, I miss you child
Aaah aaah aaah aaah aaah aaah aaah
Aaah aaah aaah aaah aaah aaah aaah
Aaah aaah aaah aaah
Lord, I miss you child
Aaah aaah aaah aaah aaah aaah aaah
Aaah aaah aaah aaah aaah aaah aaah
Aaah aaah aaah aaah ?
PLAY VERSE CHORDS TO FADE OUT

CHORDS USED:

 Am11AmFD5EmDm
E ---5----5----8----5---7----5---|
B ---5----5---10----5---8----6---|
G ---5----5---10----7---9----7---|
D ---5----7---10----7---9----7---|
A ---5----7----8----5---7----5---|
E ---5----5----8----5---7----5---|
-------------------------------------------------------------------------------


"WHEN THE WHIP COMES DOWN"
INTRO: A D -- 4x's

VERSE:
 A
       Yeah, momma and poppa told me
 D
       I was crazy to stay
 A
       I was gay in New York
 D
       Which is a fag in L.A.
 A
       So I saved my money
 D
       And I took a plane
 AD
       Wherever I go they treat me the same

CHORUS:
 AD
       When the whip comes down   
 AD
       When the whip comes down   
 AD
       When the whip comes down   
 ADADAD
       When the whip comes down                      

VERSE:
I'm going down fifty-third street
And they're spitting in my face
I'm learning the ropes
Yeah I'm learning a trade
The east river truckers
Is churning with trash
I've got so much money
That I'm spending so fast

CHORUS 2:
When the whip comes down
When the whip comes down
When the whip comes down
When the whip comes down
 A
       When the shit hits the fan
 D
       I'll be sitting on the can
When the whip comes down

VERSE:
Yeah, some called me garbage
While I was sleeping on the street
I never roll
And I never cheat

I'm filling a need
I'm plugging a hole
My mama's so glad
I ain't on the dole

CHORUS 3:
When the whip comes down
When the whip comes down
When the shit hits the fan
I'm sitting on the can
When the whip comes down
 GDGDGD
       When the whip comes down                     

CHORUS:

INSTRUMENTAL: SOLO OVER TE CHORDS A D -- 7x's

CHORUS 2:

BREAK:
THEN: A D -- 12x's

CHORUS:

FADE OUT:

-------------------------------------------------------------------------------

"JUST MY IMAGINATION"
INTRO: CAN PLAY: A D -- 4x's AND/OR:
 D
 E ---------------------------------------------------------5--
 B ---------------------------------------------------------7--

sl. sl.sl. sl. sl.
 G -7/9*--7---6/7*/9*--7---6h7/9*-9--7---6h7-9-9----9/7*----7--

NOTE: *-means do not strike the note.
 D ---------------------------------------------------------7--
 A ---------------------------------------------------------5--
 E ---------------------------------------------------------5--


VERSE:
 ADAD
      I look out my window watch her as she passes by   
 ADAD
      I say to myself I'm such a lucky guy   
 ADAD
      To have a girl like her is a dream come true
 ADAD
      And of all the girls in New York she loves me true  

CHORUS:
 AD
      It was just my imagination, once again
 AD
      Running away with me  
 AD
      It was just my imagination
 AD
      Running away with me  

VERSE:
Soon we'll be married and raise a family
Two boys for you, what about two girls for me
I tell you I am just a fellow with a one track mind
Whatever it is I want baby I seek and I shall find
I'll tell ya

CHORUS:

INSTRUMENTAL: A D -- 8x's

BREAK:

 A
      Every night I hope and pray
"Dear Lord, hear my plea
Don't ever let another take her love from me
 E
      Or I will surely die"
 A
      Her love is ecstasy
When her arms unfold me
I hear her tender rhapsody
But in reality, she doesn't even know me

CHORUS:

CHORUS:

INSTRUMENTAL: PLAY CHORDS TO CHORUS

CHORUS:

  (THEN) ........ RUN-A-WAY, RUN-A-WAY, ETC.... TO FADE OUT
-------------------------------------------------------------------------------


"Some Girls"

Intro (under harmonica lick):

 AD/AAD/AE/BD/A
Verse:

 AD/A
   Some girls give me money
 AD/A
   Some girls buy me clothes
 AD/A
   Some girls give me jewelry
 E/BD/A
   That I never thought I'd own

 AD/A
   Some girls give me diamonds
 AD/A
   Some girls, heart attacks
 AD/A
   Some girls I give all my bread to
 E/BD/A
   I don't ever want it back

Break:

 AE/B
   So give me all your money
 AE/B
   Give me all your gold
 AE/B
I'll buy you a house back in Zuma beach
 D/AE/B
   And give you half of what I own

------------------------------------------------------------------------------


"LIES"
INTRO: E A E A

VERSE:
 EA
      Lies, dripping off your mouth like dirt
 EA
      Lies, lies in every step you walk
 EA
      Lies, whispered sweetly in my ear
 EA
      Lies, how do I get out of here?
 DE
      Why, why you have to be so cruel?
 AEA
      Lies, lies, lies I ain't such a fool!       

VERSE:
Lies, lies in my poppas looks
Lies, lies in my history books
Lies, lies like they teach in class
Lies, lies, lies I catch on way too fast
Fire, fire upon your wicked tongue
Lies, lies, lies you're trying to spoil my fun

INSTRUMENTAL: SOLO OVER THE CHORDS E A -- 4x's

BREAK:
 DE
      Lies, lies you dirty jezebel
 AEAEA
      Why, why, why, why don't you go to hell?              
 DE
      Why, why you think me such a fool?
 AEA
      Lies, lies, lies honey that's ya rules!       

OUTRO:
Lies, lies, lies, lies, oh my lies,........E A -- 6x's TO END

END ON A CHORD

-------------------------------------------------------------------------------


Far Away Eyes
 GC
 I was driving home early Sunday morning through Bakersfield
 GD
 Listening to gospel music on the colored radio station
 GC
And the preacher said, "You know you always have the
 GD
 Lord by your side"
 G
 And I was so pleased to be informed of this that I ran
 CGD
Twenty red lights in his honor Thank you Jesus, thank you lord

 GCGD
 GC
 I had an arrangement to meet a girl, and I was kind of late
 GD
 And I thought by the time I got there she'd be off

 GC
 She'd be off with the nearest truck driver she could find
 GD
 Much to my surprise, there she was sittin in the corner
 GC
 A little bleary, worse for wear and tear
 GDG
Was a girl with far away eyes
-------------------------------------------------------------

CHORUS:
 CD
So if you're down on your luck
 GCGC
And you can't harmonize   (2ND TIME: I KNOW YOU ALL SYMPATHIZE)
 GDG
Find a girl with far away EYES
 CD
And if you're downright disgusted
 GC
And life ain't worth a dime
 GDG
Get a girl with far away eyes
--------------------------------------------------------------------

 GC
 Well the preacher kept right on saying that all I had to do was send
 GD
 Ten dollars to the church of the sacred bleeding heart of Jesus
 GC
 Located somewhere in Los Angeles, California
 GD
 And next week they'd say my prayer on the radio
 GC
 And all my dreams would come true
 GD
 So I did, the next week, I got a prayer with a girl
 GDG
 Well, you know what kind of eyes she got
---------------------------------------------------------------

cHORUS 2:

----------------------------------------------------------------------


"RESPECTABLE"
INTRO: A* D D D D A* E* A*

                               E ----------------------|---------
                               B --9b--7----9b-9b-9b-7-|-9-7---7-
                               G --9b------------------|-----9---
                               D ----------------------|---------
                               A ----------------------|---------
                               E ----------------------|---------


CHORDS(riff) USED DURING SONG:
A* D* E*
    E -------------    E ----------------   E ---------------
    B -------------    B ----------------   B ---------------
    G -------------    G ----------------   G ---------------
    D -------------    D -7--7--9--7-----   D -9-9-9-9-9-9-9-
    A -7--7--9--7--    A -5--5--5--5-----   A -7-7-7-7-7-7-7-
    E -5--5--5--5--    E ----------------   E ---------------

VERSE:
A*
Well now we're respected in society
We don't worry about the things that we used to be
D*
We're talking heroin with the president
A*
If there's a problem sir you better keep the rent

E* A
Uh yes!

VERSE:
A*
Well now you're a pillar of society
You don't worry about the things that you used to be
D*
You're ready to take your eye on a grain of power
A*
You're an alias liar, the one's has lost
E* A
Get out of my life, don't come back
E* A
Get out of my life, don't come back

CHORUS:
A*
She's so respectable
She's so respectable
D*
She's so delectable
A*
She's so respectable
E*
Get out of my life
Don't take my wife
 A
       Don't come back
E*
Get out of my life
Don't take my wife
 A
       Don't come back
What I say!

GUITAR SOLO (IMPROVISE): over chords -- A* D* A* E* A*

CHORUS: same as first chorus above

GUITAR SOLO (IMPROVISE): over chords -- A* D* A* E* A*

CHORUS: same as first chorus above but ADD:

E*
Get out of my life
Don't take my wife
 ADA
        Don't come back, come back, hey         

-----------------------------------------------------------------------


"Better Walk Before They Make Me Run"
(opening riff)
D 12----12--12--12--12-----x----0------5----5--7----0-----------------
B 12----12--12--13--12-----x----0------5----5--7----0-----------------
G 12----12--12--12--12-----9----0------5----5--7----0-----------------
D 12----12--12--14--12-----9----0------5----5--7----0-----------------
G 12----12--12--12--12-----9----0------5----5--7----0-----------------
D --------------------------------------------------------------------


 FEminDFEminD
Worked the bars and sideshows along the twighlight zone

 G
Only a crowd can make you feel so alone

 G
And it really hit home

 FEminDFEminD
Booze and pills and powders, you can choose your medicine

 GD
Well here's another goodbye to another good friend

(use chorus tab)

After all is said and done

I better move while it's still fun

I better walk before they make me run

Watched the taillights fading, there ain't a dry eye in the house

They're laughing and singing

Started dancing and drifting as I left town

Gonna find my way to heaven, `cause I did my time in hell

I wasn't looking too good but I was feeling real well

After all is said and done

I better move I had my fun

I better walk before they make me run

(bridge) G - D - F - C - A#
         G - D - F - C - A#
         G - D - F - C - D


After all is said and done

I better move, it's still fun

I better walk before they make me

I better walk before they make me

I better walk before they make me run

-------------------------------------------------------------------------------


"Beast Of Burden"

 EB/D#C#mA
I'll never be your beast of burden

 EB/D#C#mA
My back is broad but it's a hurting

 EB/D#C#mA
All I want is for you to make love to me

 EB/D#C#mA
I'll never be your beast of burden

 EB/D#C#mA
I've walked for miles, my feet are hurting

 EB/D#C#mAB/D#C#m
All I want is for you to make love to me

 AE/G#A
Am I hard enough Am I rough enough Am I rich enough

 E/G#AB
I'm not too blind to see

 EB/D#C#mA
I'll never be your beast of burden

 EB/D#C#mA
So let's go home and draw the curtains

 EE/D#
Music on the radio

 C#mAEB/D#C#m
Come on baby, make sweet love to me

 AE/G#A
Am I hard enough Am I rough enough Am I rich enough

 E/G#ABE
I'm not too blind to see...oh little sister

 E/D#C#mA
Pretty, pretty, pretty girl

E B/D# C#m | A | E B/D# C#m | C#m A | E B/D# C#m |

 AEA
You're such a pretty, pretty, pretty, pretty, pretty, pretty girl

 EA
Pretty, pretty such a pretty, pretty, pretty girl

 EA
Come on, baby please, please, please

 AE
I'll tell ya

 B/D#C#mA
You can put me out on the street

 EA
Put me out with no shoes on my feet

 EB/D#C#mAEB/D#C#m
But put me out, put me out, put me out... out of misery

 EB/D#C#A
All your sickness I can suck it up

 EE/D#
Throw it all at me

 C#mA
I can shrug it off

 EB/D#C#mA
There's one thing, baby, I don't understand

 EE/G#A
You keep telling me I ain't your kind of man

 E
Ain't I rough enough

 AEB/D#C#m
Ain't I tough enough

 AE
Ain't I rich enough

 B/D#C#m
In love enough

 AEB/D#C#m
Ooh Ooh please

repeat first verse

end:

I don't need no beast of burden

I need no fussing, I need no nursing

Never, never, never, never, never, never, never be...

------------------------------------------------------------------------


capo fret 4:

 EB/D#C#mAE/G#E/D#A/B
 E-0---------3---------0---------1---------0---------0---------1---------
 B-1---------0---------1---------1---------1---------1---------1---------
 G-0---------0---------2---------2---------0---------0---------2---------
 D-2---------0---------2---------3---------2---------2---------3---------
 A-3---------2---------0---------3---------3---------2---------3---------
 E-0-----------------------------1---------0-------------------3---------
-------------------------------------------------------------------------------


"SHATTERED"

Guitar 1 (Standard Tuning)

Intro

(================) (=======)
(=)
|-----------------|-----------------|-----------------|----------------|
|-----------------|-----------------|-----------------|----------------|
|-----------------|-----------------|-----------------|----------------|
|-----------------|-4---4-----4-----|-------------0-0-|-4---4-------4--|
|-2-----2-----2---|-0h2---0h2---0-0-|-------2-----0---|-2---2-------2--|
|-0-0-0-0-0-0-0-0-|-----------------|-0-0-0-0-0-4-----|----------------|

-|

Uh, huh Shattered Uh, huh Shattered
(================) (================)
|-----------------|-----------------|-----------------|----------------|
|-----------------|-----------------|-----------------|----------------|
|-----------------|-----------------|-----------------|----------------|
|-----------------|-4---4-------4-4-|-----------------|---4----4--4----|
|-2-----2-----2---|-2---2-------2-2-|-2-----2-----X---|-2----2------0-0|
|-0-0-0-0-0-0-0-0-|-----------------|-0-0-0-0-0-0-0-0-|----------------|

-|

Love... still... Look... I'm...
|-----------------|-----------------|-----------------|----------------|
|-----------------|-----------------|-----------------|----------------|
|-----------------|-----------------|-----------------|-2--------------|
|-2---2-----------|-4---4-----------|---------------0-|-2---2----------|
|-0---0-------0-0-|-2---2-----2-2---|-2---2-------0---|-----0----------|
|-----------------|---------------0-|-0---0---4/5-----|----------------|


I been Shattered Shattered
(================) (======)

|-----------------|-----------------|-----------------|----------------|
|-----------------|-----------------|-----------------|----------------|
|-----------------|-----------------|-----------------|----------------|
|-----------------|-4-4---4-4---4---|-------------0-0-|-4---4-----4----|
|-2-----2-----2---|-2---2---2---2---|-2-----------0---|-0h2---0h2---0--|
|-0-0-0-0-0-0-0-0-|-----------------|-0-0-0-0-0-4-----|----------------|


VERSE

Friends... lover's... Life's... on the street...
(================) (================)
|-----------------|-----------------|-----------------|----------------|
|-----------------|-----------------|-----------------|----------------|
|-----------------|-----------------|-----------------|----------------|
|-----------------|-4---4-----4-----|-----------------|-4---4-----4-4--|
|-2-----2-----2---|-0h2---0h2---0---|-2-----2-----2---|-0h2---0h2---0--|
|-0-0-0-0-0-0-0-0-|-----------------|-0-0-0-0-0-0-0-0-|----------------|


people dressed... directing traffic Some kind... shattered
(================) (================)
|-----------------|-----------------|-----------------|----------------|
|-----------------|-----------------|-----------------|----------------|
|-----------------|-----------------|-----------------|----------------|
|-----------------|-4---4-----4-----|-----------------|-4---4-----4-4--|
|-2-----2-----2---|-0h2---0h2---0---|-2-----2---------|-0h2---0h2---0--|
|-0-0-0-0-0-0-0-0-|-----------------|-0-0-0-0-0-0-0-0-|----------------|


END VERSE

CHORUS

Laughter... sex and... look at me I'm in tatters
|-----------------|-----------------|-----------------|----------------|
|-----------------|-----------------|-----------------|----------------|
|-----------------|-----------------|-----------------|----------------|
|-2---2-----2-----|-4-4---4---------|---------------0-|-2-------4p2----|
|-0---0-------0-0-|-2-----2---2-2---|-2----2------0---|-0-----0-----0--|
|-----------------|---------------0-|-0----0---/4-----|----------------|


I'm shattered Shattered
(=========)
|-----------------|-----------------|-----------------|----------------|
|-----------------|-----------------|-----------------|----------------|
|-----------------|-----------------|-----------------|----------------|
|---------------X-|-4---4-----4-----|-----------4---4-|---------4---4--|
|-2-----2-----0---|-0h2---0h2---2p0-|-2-----2---------|-0h2-2---1/2-2--|
|-0-0-0-0-0-4-----|-----------------|-0-0-0-0-0-------|----------------|


END CHORUS

All this... chatter Shmatter... give it...
(================)
|-----------------|-----------------|-----------------|----------------|
|-----------------|-----------------|-----------------|----------------|
|-----------------|-----------------|-----------------|----------------|
|-----------------|-4-----4-4---4---|-----------------|-4-4-4-4-4-4-4--|
|-2-----2-----2---|-2-----2---2-2---|-2-----2-----2---|-2-----2-----2--|
|-0-0-0-0-0-0-0-0-|-----------------|-0-0-0-0-0-0-0-0-|----------------|


This town's... tatters shattered shadoobee
(================) (===)
|-----------------|-----------------|-----------------|----------------|
|-----------------|-----------------|-----------------|----------------|
|-----------------|-----------------|-----------------|----------------|
|-----------------|-4-4---4-4-4-4---|-----------------|-4-----4-4---4--|
|-2-----2-----2---|-2---2-2-----2-2-|---------2---X---|-2-----2-2---2--|
|-0-0-0-0-0-0-0-0-|-----------------|-0-0-0-4-----X-X-|----------------|


Work and... Ain't you... Suc-cess... Does it matter?
(================)

|-----------------|-----------------|-----------------|----------------|
|-----------------|-----------------|-----------------|-----3----------|
|-----------------|---------4-------|-----------------|-----2----------|
|-2---2-----------|---------4-------|-----------------|-2---4---4p2----|
|-0---0-----------|-2-------2---X---|-2-----2-----2---|-0--------------|
|-----------------|---------------0-|-0-0-0-0-0-0-0-0-|----------------|


I'm Shattered Does it matter?
(==============) (================)
|-----------------|-----------------|-----------------|----------------|
|-----------------|-----------------|-----------------|----------------|
|-----------------|-----------------|-----------------|-------4--------|
|---------------0-|-4-----4-----4---|-----------------|-4-----4--------|
|-2-----2-------0-|-2-2-2-2---2-2---|-2-----2-----2---|-2-----2----2p0-|
|-0-X---0-0-4-4---|-----------------|-0-0-0-0-0-0-0-0-|----------------|


Solo (there are like five guitars here but i've tabbed the main two
I'll
try to put the other three in later)
(Guitar 1 in Slashes)

Guitar 2 (standard tuning)
|-9----9----------|-----------------|-----------------|--10-10-12/14-12-|
|-9----9--12p9----|-----------------|----14-14---15p14|--10-10----------|
|-------------11B-|-r11-9hX-9~------|----14-14--------|--11----12/14-12-|
|-----------------|------------11---|----14-14-14-----|-----------------|
|-----------------|-----------------|9/12------12-----|-----------------|
|-----------------|-----------------|-----------------|-----------------|


 G5CA5
 /                /                  (guitar 1 plays fill 1 here
[]
|-----------------|---------8-10/12-|-----------------|-----------------|
|-12------12------|-------8---------|-----------------|-----------------|
|-12-12-12--12-\10|-----9-----10/12-|11/141414-12/1414|13h141414141414\-|
|-12-----------\10|--10-------------|11/141414----1414|13h141414141414\-|
|-----------------|-----------------|-----------------|-----------------|
|-----------------|-----------------|-----------------|-----------------|
|X---9------------|-----------------|-----------------|-----10----10----|
|X-9---12-12------|----12-----------|-----------------|-----10----10----|
|---------11B-----|r11-11br11-11~-9~|---14-14-14-14-14|--11-------10-11-|
|-----------------|-----------------|---14-14-14------|-----------------|
|-----------------|-----------------|-----------------|-----------------|
|-----------------|-----------------|-----------------|-----------------|


Oh
 G5C5B5
 /     /           /      /          (guitar 1 plays fill 2 here
[]
|-------------7---|---------8-8-8-8-|-----------------|-----------------|
|--------8----8---|---------8-8-8-8-|-----------------|---3-4-4-3-4-3---|
|--0-7------------|---------9-9-9-9-|-----9-------9-9-|---3-4-4-3-4-3---|
|--0-7-9----------|--------10101010-|---9-9-9---9-----|-----------------|
|-----------------|------10---------|---7----10-------|-----------------|
|-----------------|----/8-----------|-----------------|-----------------|


Fill 1

|-----------------|-----------------|
|-----------------|-----------------|
|-----------------|-----------------|
|-----------------|---------2-------|
|---5---0---------|---------0-2-----|
|-----3p0---------|-----------3p0---|


Fill 2

|-----------------|-----------------|
|-----------------|-----------------|
|-----------------|-----------------|
|-----------------|-----------------|
|-----------------|-9---------9-9---|
|-0-2---0---0-4-5-|-7---------7-7---|


There is another guitar from the end of the solo to the end of the song,
but I haven't tabbed it.

Now play VERSE, then CHORUS, VERSE six times, then play 1st bar of
CHORUS, and then Fill 3.

Fill 3

|-----------------|-----------------|
|-----------------|-----------------|
|-----------------|-----------------|
|-4---4-4-4---4---|-----------------|
|-2---2-2-2---2/11|-----------------|
|-----------------|-0---------------|


(=====) Pick Hand Palm Muted
h hammer on
p pull off
X Fret Hand Muted
B whole step bend
b half step bend
r release
/ slide up
\ slide down
~ vibrato
1414 is -14-14-


END

+--------------------------------------------------------------------------+

| This file is the author's own work and represents their interpretation |
| of the song. You may only use this file for private study, scholarship, |
| or research. |
+--------------------------------------------------------------------------+


Ultimate-Guitar.Com © 2005


A A/B A5 Am Am11 B B5 C C# C#m C5 D D5 Dm E E/B E/G# Em Emin F G G5
variations - click chord images
Transpose chords:
Tuning:
Cool service:
View: Size:
A  A  A
Rating:
Layout:
  • Currently 1/5 Stars.
  • 1
  • 2
  • 3
  • 4
  • 5
 
Accuracy:
  • Currently 0/5 Stars.
  • 1
  • 2
  • 3
  • 4
  • 5
 
click stars to rate
Chordie recommends:
Learn how to play guitar at JamPlay.com
Songbook:
Login to add this song to your songbook
Support the artist
Preview/buy this song
MSN Music
Why this non-profit ad?

 
login to add comments/video/corrections