""; ?> Covered In Rain by John Mayer - guitar chords, guitar tabs and lyrics - chordie

Covered In Rain

John Mayer


| Ultimate Guitar Tabs Archive - your #1 source for tabs! | | http://www.ultimate-guitar.com/ | | | | Over 200,000 guitar, guitar pro and bass tabs! Also lessons, news, | | columns and guitar forums! |
Artist: John Mayer Song: Covered In Rain
2:45 -----------------------------------| -----------------------------------| -5b7r5b7--5h3-5b7r5b7-5b7r5h3-5b7~-| -----------------------------------| -----------------------------------| -----------------------------------|
-------3----------------------------------3-6b8-6~--3-----| -----3---6p3----------------------------3-------------6-3-| -5b7---------5b7r5h3---3~----------5b7--------------------| ---------------------5-----5-3----------------------------| -------------------------------5-3------------------------| ----------------------------------------------------------|
-------3-5b6-5-3h5p3---3-----------3-------------------| -----3---------------6---6-3-----3---6-3---------------| -5b7-------------------------5p7---------5-3----3~-----| --------------------------------------------5-5-----5\-| -------------------------------------------------------| -------------------------------------------------------|
-----6-8b9r8b9-----6-8b9r8b9-| -6h8-----------6h8-----------| -----------------------------| -----------------------------| -----------------------------| -----------------------------|
-----6-9b11--9~-6---6-9-6h8p6------6-------------6---------------| -6h8--------------6-----------9b10---9p6-------6---9-6-----------| ------------------------------------------8b10---------8b9r8-6---| ---------------------------------------------------------------8-| -----------------------------------------------------------------| -----------------------------------------------------------------|
------------------------------------------------------| -9-6--------------------------------------------------| -----8b9r8-6---6~--------------------------------8-10-| -------------8----8p6-------6-8-10b11r10-10-8-11------| ----------------------8-6/8---------------------------| ------------------------------------------------------|
-----------------------------------------------------------| -------------------------------------------------------11^-| -8b10r8----8-----------------------------------------10----| --------11---11-8--10b11r10-10-8~--10b11r10-10-8~--12^-----| -----------------------------------------------------------| -----------------------------------------------------------|
-------11-11-------11-11-------11-11-------11-11-| -14b16-------14b16-------14b16-------14b16-------| -------------------------------------------------| -------------------------------------------------| -------------------------------------------------| -------------------------------------------------|
-------11-13------------------------| -14b16-------13b14r13b14r13-11~-11~-| ------------------------------------| ------------------------------------| ------------------------------------| ------------------------------------|
-------11-11-------11--------11-13-------------------------| -14b16-------14b16-----14b16-------13b14-13-11-14b15-14b15-| -----------------------------------------------------------| -----------------------------------------------------------| -----------------------------------------------------------| -----------------------------------------------------------|
-------11-----------------------------------x-11----| -14b15----13b14r13-11~-11~-/11~-11~-11~-11~-x-13b15-| ----------------------------------------------------| ----------------------------------------------------| ----------------------------------------------------| ----------------------------------------------------|
-------13-------------| -14b16----13b14-13-11-| ----------------------| ----------------------| ----------------------| ----------------------|
-------11-11-------11-11-------11-11-------11-11-| -14b16-------14b16-------14b16-------14b16-------| -------------------------------------------------| (slower) -------------------------------------------------| -------------------------------------------------| -------------------------------------------------|
-------11-11-------11-11-------11-------11-x-------11-| -14b16-------14b16-------14b16----14b16----x-14b16----| ------------------------------------------------------| (faster) ------------------------------------------------------| ------------------------------------------------------| ------------------------------------------------------|
-------11-13------------------------------------------------| -14b16-------13b14-13-11~-11~-13b14-13-11~-13b15\------10~\-| ---------------------------------------------------/11------| ------------------------------------------------------------| ------------------------------------------------------------| ------------------------------------------------------------|
[[[3:32 -----------------| -6-8-6-6-6~~-----| -7-7-7-5-7p5-----| -------------8~~-| -----------------| -----------------|
Then these chord like things from 3:35 to 3:52 --------------| 6---6---6-----| 5---5---5h7---| --8---8-----8-| --------------| --------------|
AND ------------------| 6~~~~---6-6~~~~~~-| 5h7p5---5-5~~~~~~-| ------8---7~~~~~~-| ------------------|
then at 3:53 till 3:55 --------------| -6---6---6----| -5h7-5h7-5h7--| --------------| --------------| --------------|]]]
---------------------------------3--------| ------------------------------6^---3p1-3~-| -3h5-5^-3h5~--5h3-------------------------| ------------------3-----1/3-5-------------| --------------------3-1-------------------| ------------------------------------------|
-----1-h3------------------------------------------| -1h3-------3---3-------------3-6-------------------| -------------5----5p3------------5/7-3-5---3-------| ----------------------5--3h5-------------5---3-5---| -------------------------------------------------5-| ---------------------------------------------------|
---------------------------------------| ----------------------------3-6--------| ---------3/5--------------------5-3-5~-| -----3h5-----5-3~--1~--(/5)------------| -5h6-----------------------------------| ---------------------------------------|
----------------------------------------------------| -3^-3^-3^-------------------------------------------| -----------5-5~--5-5p3---5-----------------3h5-3~---| -----------------------5----5p3----------3--------5-| --------------------------------5-3-1-/5------------| ----------------------------------------------------|
-----6----------------------------------------------| -8b9---8b9-6-6~-6~---6------------------------------| -------------------8---5-3-3~-3-5-5b7-5b7-----3-3-5-| ------------------------------------------3h5-------| ----------------------------------------------------| ----------------------------------------------------|
----------------------------------------------| -------6-4-3-----------6-4-3------------------| -----3-------3---------------3--/5-5b7-3-5-5~-| -3h5-------------5p3h5------------------------| ----------------------------------------------| ----------------------------------------------|
------------------------------------------------| -------6-4-3-----6^-6^-6^-3------6^-6^-6^-3-----| -----3-------3--------------5-3-------------5-3-| -3h5--------------------------------------------| ------------------------------------------------| ------------------------------------------------|
------------------------------------------| ------------------------------------------| -3h5-3h5--3h5-3h5-3h5--3h5-3h5-3h5--3~-h5-| ------------------------------------------| ------------------------------------------| ------------------------------------------|
-----------------------------------------------------------------------------| -----------------------------------------------------------------------------| -----------------------------------------------------------------------------| -5b7~-----3-5b7-3-5---3~\-----3-5b7-5~--5------3h5-3~-----------------3----3-| --------------------5------/5-------------5-3~--------5p3-/5-/5~\--/5---/5---| -----------------------------------------------------------------------------|
------------------------------------------------| -15----18---------------------------------------| ----17-----17p15-------15h17-15-17-15-----------| -----------------17-------------------15-13-12~-| ------------------------------------------------| ------------------------------------------------|
--------------------------------------------------------------| -----------18-16-----------------------------18~-16p15-----18-| ---------------------17-15----------------17-----------17~----| -(12)-(12)--------17--------17p15\12--------------------------| -------------------------------------15~----------------------| --------------------------------------------------------------|
-------------------------------------| -15----15----15--15-18~-15----15~-18-| ----17----17---------------17--------| -------------------------------------| -------------------------------------| -------------------------------------|
---------------------------------17----18~-\-| -15----15----15--15-18~-18p15-------15-------| ----17----17------------------17-------------| ---------------------------------------------| ---------------------------------------------| ---------------------------------------------|
-15-18-15-20--18-17-15-18--18p17p15-------| ------------------------------------18----| ---------------------------------------15-| ------------------------------------------| ------------------------------------------| ------------------------------------------|
-18~-17-15----18-----------------------------------------------------| -----------18----15~----18-16-15-------------------------------------| ---------------------15----------17-15-------------------------------| ---------------------------------------17-15-17-15-17-15-17-15-17-15-| ---------------------------------------------------------------------| ---------------------------------------------------------------------|
--------------------------------------| --------------------------------------| -15-15-15-15-17--15~--15-15-15-17--15-| --------------------------------------| --------------------------------------| --------------------------------------|
--------------------------------------------| --------------------------------------------| -15-15-15-15-17--15~--15-15-15-15h17--15h17-| --------------------------------------------| --------------------------------------------| --------------------------------------------|
--------------------------------------| -------------------------------18-----| -15-15-15-15-17--15~--15-15-15-----15-| --------------------------------------| --------------------------------------| --------------------------------------|
--------------------------------------| -------------18-------------18-18-----| -15-15-15-15-----15~--15-15-17-17--15-| --------------------------------------| --------------------------------------| --------------------------------------|
-----------------------------------------| ----------18-18----------------18-18-----| -15-15-15-17-17-17~--(15)-(15)-17-17--17-| -----------------------------------------| -----------------------------------------| -----------------------------------------|
-------------------------------| -------18-18-------------------| -15-15-17-17--15~-\-3-3-5-5^-3-| -------------------------------| -------------------------------| -------------------------------|
------------------------------------------------------| ------------------------------------------------------| -3-3-3-3--5-3--3-3--3--5-3---3---3--5-3---3--3-3--5-3-| ----------------------------5---5--------5----5-------| (x3 w/variation) ------------------------------------------------------| ------------------------------------------------------|
[[[fast part]]]
-------------------------------------| -------------------------------------| -/7-7-7~----7--5b7-5-5b7r5-3-5b7-5-3-| -------------------------------------| -------------------------------------| -------------------------------------|
-------3----------------------------------------------------| ---------6-3---------6p3------------------------------------| -3-5b7-------5-3---------5p3-3h5----------------------------| -----------------5-3-------------5-3----------3----3----3---| -------------------------------------3-1-3/5-----5----5---5-| ------------------------------------------------------------|
-6-8b9-8-6-9b11-9-6-9-6--6----------------------6----------------| ---------------------------9-6----------------6---9-6------------| -------------------------------8b10-8-6---6-8---------8b10-8-6---| ----------------------------------------8----------------------8-| -----------------------------------------------------------------| -----------------------------------------------------------------|
--------------------------------------| -9-6----------------------------------| -----8b10-8-6---5/6-5-----------6-----| --------------8-------8--/5--8--------| -----------------------------------10-| --------------------------------------|
Strum x.x.12.10.11.x for awhile then xx756x
-11b13--11b13--11b13-11--9-----------11b13--11b13--11b13-9----9----------| ---------------------------11~-11~-8-----------------------11---11-11-11-| -------------------------------------------------------------------------| -------------------------------------------------------------------------| -------------------------------------------------------------------------| -------------------------------------------------------------------------|
-----------------------------------------------------------| -11-9---------11-9-----9------9b10-9-6--------9b10-9-------| ------10-8-10------10--8b10-8----------8-6-----------8-6---| -------------------------------------------8-------------8-| -----------------------------------------------------------| -----------------------------------------------------------|
---------------------------9b11-9-6-------11b13-11-9----| -9b10-9-6-----9b11-9-6--------------9-(6)------------11-| ----------8-6----------8-6------------------------------| --------------------------------------------------------| --------------------------------------------------------| --------------------------------------------------------|
Tremolo pick: x.x.x.12.11.x x.x.x.10.10.x then x.x.x.12.11.x x.x.x.10.10.x then x.x.x.12.11.x
------- ------------------| -10h11- -10--11-11--------| -10h12- -10--12-12--------| ------- (x12) ------------| (x4) ------- ------------------| ------- ------------------|
--------------------------------------------------------------------------| -10--11--10--11-11-10--11--10-10-11--10-10-11--10--11-11-10---------------| -10--12--10--12-12-10--12--10-10-12--10-10-12--10--12-12-10--12--10-10-12-| --------------------------------------------------------------------------| --------------------------------------------------------------------------| --------------------------------------------------------------------------|
------------------------------------------------------------------| ------------------11-10-------------------------------------------| -10-10-12--10--12--------12--10--12--10--12--10--12-12-10--12--10-| ------------------------------------------------------------------| ------------------------------------------------------------------| ------------------------------------------------------------------|
END
+--------------------------------------------------------------------------+ | This file is the author's own work and represents their interpretation | | of the song. You may only use this file for private study, scholarship, | | or research. | +--------------------------------------------------------------------------+
Ultimate-Guitar.Com © 2005

variations - click chord images
Transpose chords:
Tuning:
Cool service:
View: Size:
A  A  A
Rating:
Layout:
  • Currently 0/5 Stars.
  • 1
  • 2
  • 3
  • 4
  • 5
 
Accuracy:
  • Currently 0/5 Stars.
  • 1
  • 2
  • 3
  • 4
  • 5
 
click stars to rate
Chordie recommends:
Learn to play guitar with video-based, online guitar lessons at JamPlay.com
Songbook:
Login to add this song to your songbook
Support the artist
Preview/buy this song
MSN Music
Why this non-profit ad?

 
login to add comments/video/corrections